» » »

Carbon Leaf, A Life Less Ordinary Bass tabs (ver.1)

Artists:  A B C D E F G H I J K L M N O P Q R S T U V W X Y Z # 

A Life Less Ordinary Bass tabs (ver.1)

Carbon Leaf Tabs
 Rating:
4/5 (5 votes)
A Life Less Ordinary lessons Tabs too difficult? Try these video lessons and learn fast
1
                Life Less Ordinary"


Riff 1
G|-----------------------------------|
D|------7t9—7--5---5-----------------|
A|---------------7----7-5------------|
E|--3--------------------------------| x2

Riff 2
G|-----------------------------------|
D|-------7--9--7----9p7p5------------|
A|--3--------------------------------|
E|-----------------------------------| x2




Riff 1
Live a life less ordinary
                                          Riff 2
Live a life extraordinary with me

Riff 1
Live a life less sedentary
 				Riff 2
Live a life evolutionary with me
         Riff 1
Well I hate to be a bother,
                                                            Riff 2
But it's you and there's no other, I do believe

You can call me naive but...
   Riff 1
I know me very well (at least as far as I can tell)
    		       Riff 2
And I know what I need

Chorus

Riff 3
G|------------------|-----------------|
D|------------------|-----------------|
A|----5------5------|----5--5---5-----|
E|------------------|-----------------|

Riff 4
G|------------------|-----------------|
D|------------------|-----------------|
A|----3------3------|----3--3---3-----|
E|------------------|-----------------|


Riff 3
The night you came into my life
          Riff 4
Well it took the bones of me, took the bones of me
      Riff 3
You blew away my storm and strife
      Riff 4
And shook the bones of me, shook the bones of me
Riff  3            Riff 4                  Riff 3
By the way, I do know why you stayed away... 

G|------------------|-----------------|
D|------------------|-----------------|
A|----3--2------0---|-----------------|
E|------------------|-0---------------|
                                             Riff 1
I will keep tongue-tied     next time

Live a life less ordinary
                                          Riff 2
Live a life extraordinary with me
     Riff 1
My face had said too much
Before our hands could even touch
                Riff 2
To greet a 'hello'
(So much for going slow...)
   Riff 1
A little later on that year
I told you that I loved you dear
Riff 2
What do you know?
This you weren't prepared to hear
        Riff 1
I'm a saddened man, I'm a broken boy
I'm a toddler with a complex toy
      Riff 2
I've fallen apart, since the ambush of your heart

Chorus

Riff 3
The night you came into my life
          Riff 4
Well it took the bones of me, took the bones of me
      Riff 3
You blew away my storm and strife
      Riff 4
And shook the bones of me, shook the bones of me
Riff  3            Riff 4                  Riff 3
By the way, I do know why you stayed away... 




G|------------------|-----------------|
D|------------------|-----------------|
A|----3--2------0---|-----------------|
E|------------------|-0---------------|
                                             Riff 1
I will keep tongue-tied     butt…




G|------------------|-------------------|
D|------------------|-------------------|
A|------------------|----------------3--|
E|--0--0--0--0--3---|---0--0--0--0------|

Honey understand, honey understand

G|------------------|-------------------|
D|------------------|-------------------|
A|------------------|----3--3--3--3-----|
E|--0--0--0--0--3---|-------------------|

I won't make demands

G|------------------|-------------------|
D|------------------|-------------------|
A|------------------|----------------3--|
E|--0--0--0--0--3---|---0--0--0--0------|

Honey understand, honey understand

G|------------------|-------------------|
D|------------------|-------------------|
A|------------------|----5--5--5--5-----|
E|--0--0--0--0--3---|-------------------|

We could walk without a plan.

G|------------------|-------------------|
D|------------------|-------------------|
A|------------------|----------------3--|
E|--0--0--0--0--3---|---0--0--0--0------|

Honey understand (honey), honey understand

G|------------------|-------------------|
D|------------------|-------------------|
A|------------------|----3--3--3--3-----|
E|--0--0--0--0--3---|-------------------|

I won't rest in stone all alone




G|------------------|-------------------|
D|------------------|-------------------|
A|------------------|----------------3--|
E|--0--0--0--0--3---|---0--0--0--0------|

Honey understand, honey understand

G|------------------|-------------------|
D|------------------|-------------------|
A|------------------|----5--------------|
E|--0--0--0--0--3---|-------------------|

I'm all ready to go…
                       Riff 1
But you already know...

Riff 2

Riff1
Live a life less ordinary
                               Riff 2
Live a life extraordinary with me.
   Riff 1
If I could name you in this song
Would it make you smile and sing along?
Riff 2
This is the goal: to get into your soul
   Riff 1
If I could make you dance for joy
Could that be the second-chance decoy?
      Riff 2
The bird-in-hand I would need
To help you understand?

Chorus

The night you came into my life
well it took the bones of me, took the bones of me
You blew away my storm and strife
And shook the bones of me, shook the bones of me
By the way, I do know why you stayed away
I will keep tongue-tied next time
            
Submit corrections

comments powered by Disqus
↑ Back to top | Carbon Leaf Bass for A Life Less Ordinary. Lyrics for acoustic guitar and electric guitar. 1 Tablatures and chords are parodies/interpretations of the original songs. You may use it for private study, scholarship, research or language learning purposes only