» » »

Caravan, No Backstage Pass Tabs (ver.1)

Artists:  A B C D E F G H I J K L M N O P Q R S T U V W X Y Z # 

No Backstage Pass Tabs (ver.1)

Caravan Tabs
Rating:
0/5 (0 votes)
No Backstage Pass lessons Tabs too difficult? Try these video lessons and learn fast
                CARAVAN - NO BACKSTAGE PASS

This is my first tab so be nice.  Caravan are sorely under-represented on tab sites.

Note on the solo: I was going solely on the CD and there were one or two notes that were 
 I'm 99% sure its right though.


  (x) = bend
    / = slide
h & p = hammer and pull off
    ~ = vibrato
    * = grace notes


D
Now that it's done
                F#m
I can see we've got it all back together
D
Signs in your eyes, in my smile
F#m
Show it all, show it all
C#m
Sometimes it all seemed much better
Bm
Nobody ever to guide you
C                                               Bm
Always so easy just wanting to please with your eyes

D
Travelling unknown, singing songs
F#m
Doing all with whatever
D
We'll be right, we'll be wrong
F#m
But we'll do it all, do it all
C#m
Don't know what lay down beside me
Bm
Slowly taking me over
C                                                  Bm
Changing my mind without reason or rhyme from that goal


D                   F#m
Oh, I'd work it out slowly
D                 F#m
Oh, I'd take it as it comes
D                   F#m
Oh, I'd talk it all over
D                          C
Oh, shove it back where it comes


D
In my mind, I can find
F#m
All I need for whatever
D
And as such, don't need much
   F#m
To get me by, get me by
C#m
A smile, a laugh can be better
Bm
A million or two just in case I
C                                                          Bm
Don't feel at ease and there's something it'd please me to find


D                  F#m
Oh, I'm working it slowly
D                  F#m
Oh, I'll take it as it comes
D                      F#m
Oh, I'll spread it all over
D                      F#m
Oh, shove it back where it comes

SOLO:

3.00
E|--------------------------------------------------||
B|--------------------------------------------------||
G|-(11)9(11)9(11)9(11)~~-9(11)9-7h9p7-6-6h7p6---6---||
D|--------------------------------------------9-----||
A|------------------------------------------------9-||
E|--------------------------------------------------||

3.06
E|---------------------10/12-9h10p9-7h9-------------------------------------------------------||
B|---------------7-9-7------------------7-9-10-12-12(14)-12(14)-12(14)-12-10-9-9h10p9-7h9-----||
G|---------6h7h9--------------------------------------------------------------------------9~~-||
D|---6h7h9------------------------------------------------------------------------------------||
A|-9------------------------------------------------------------------------------------------||
E|--------------------------------------------------------------------------------------------||

3.13
E|-12/14-12/14-9-12-10p9-10-9-12-10-9----9----------------------------------------------*--*--||
B|------------------------------------12---10----9-10-12-12(14)-12(14)-12(14)12-12-10-9-10-12-||
G|--------------------------------------------11----------------------------------------------||
D|--------------------------------------------------------------------------------------------||
A|--------------------------------------------------------------------------------------------||
E|--------------------------------------------------------------------------------------------||

3.21
E|-----------------------------------------9-7-9/12-9h10p9----9------------------------||
B|---------------------------------*-10h12-----------------12------9-10-12-12(14)12----||
G|------------------------------11-9----------------------------11------------------11-||
D|-------------11-9-12-11-14-12--------------------------------------------------------||
A|-12-11-14-12-------------------------------------------------------------------------||
E|-------------------------------------------------------------------------------------||

3.28
E|-----------------------------------------------------------------------------------------||
B|---------------------------------------------10---------------10-------------------------||
G|--------9-7---------------7-7h9p7~~---7-9/11----11----9~-9/11----11----9p7p6------------o||
D|----7-9-----9-8-7---7-8-9-----------9--------------12---------------12-------9p7p6------o||

X 3
E|-----------------------------------------------------------------------------------------||

3.51
E|-------------------------------------------------------------||
B|-------------------------------------------------------------||
G|--------9-7---------------7-7h9p7~~---7/9~-7-9(11)9-7-9-9~\\-||
D|----7-9-----9-8-7---7-8-9-----------9------------------------||
A|-/9---------------9------------------------------------------||
E|-------------------------------------------------------------||

D
Have you been done
               F#m
Are you one or don't you know altogether?
D
Don't you think it all stinks
   F#m
Or do you know not at all?
C#m
Don't wait for someone to guide you
Bm
Maybe it won't seem much better
C                                                     Bm
Take what you can, there's time in your hands passing by
            
Submit corrections

comments powered by Disqus
↑ Back to top | Caravan Tabs for No Backstage Pass. Lyrics for acoustic guitar and electric guitar. Tablatures and chords are parodies/interpretations of the original songs. You may use it for private study, scholarship, research or language learning purposes only