» » »

Caravan, Love To Love You And Tonight Pigs Will Fly Chords (ver.1)

Artists:  A B C D E F G H I J K L M N O P Q R S T U V W X Y Z # 

Love To Love You And Tonight Pigs Will Fly Chords (ver.1)

Caravan Tabs
Rating:
0/5 (0 votes)
Hard to play? Try these video lessons and learn fast.
                INTRO
B, E, F# B F#

VERSE 1
  B		     E			F# B F#
I dreamed of all the magic things that be
     B		     E		   F# B F#
When we'd ride to a dock on bended knee
    B			 E		   F# B F#
But you'd just smile and gently shake your head
    B		       E  	   F# B F#
And put a hole through me so I was dead
    E(4thf)			 F#
Oh, I'd fall down and I was left alone
	E				F#7
With a feeling of you still that was my own

CHORUS
B     E		     F#      B    F#
Oh, I would love to, love to love you
B      E	  F#        B    F#
Yes, indeed, I do love you, love you
B       E		F#         B  F#
My, my, pigs might fly, that can't be bad
B              E	  	  F#      B   F#
How you've the cheek to smile and tell me I'm mad

BRIDGE
|-------------7---6-------4---------------7---6---6---4|
|-7-5-7---5-------------------7-5-7---5----------------|
|------------------------------------------------------|
|------------------------------------------------------|
|------------------------------------------------------|
|------------------------------------------------------|

|-------------7---6-------4---7-6-4-6----4------------------|
|-7-5-7---5----------------------------------7---5----------|
|----------------------------------------------------8---6--|
|-----------------------------------------------------------|
|-----------------------------------------------------------|
|-----------------------------------------------------------|

(Repeat VERSE)

(Repeat CHORUS)

BRIDGE2
F#

(Repeat CHORUS to fade)
            

comments powered by Disqus
↑ Back to top | Caravan Chords for Love To Love You And Tonight Pigs Will Fly. Lyrics for acoustic guitar and electric guitar. Tablatures and chords are parodies/interpretations of the original songs. You may use it for private study, scholarship, research or language learning purposes only