» » »

Caramelos De Cianuro, Sanitarios Tabs (ver.2)

Artists:  A B C D E F G H I J K L M N O P Q R S T U V W X Y Z # 

Sanitarios Tabs (ver.2)

Caramelos De Cianuro Tabs
 Rating:
4/5 (4 votes)
Sanitarios lessons Tabs too difficult? Try these video lessons and learn fast
1
                Intro 1-
    
e|---------------------------------------
B|---------------------------------------
G|--------------------------------------- 
D|---------------------5---5---5---------
A|-----5---5---5---3-3---3---3---3-------
E|-3-3---3---3---3-----------------------

e|---------------------------------------
B|---------------------------------------
G|--------------------------------------- 
D|---------------------------------------
A|-----7---7---7---7---7---7-------------
E|-5-5---5---5---5---5---5---------------

-Intro/verso 2distorsion

     G5      C5         A5
e|---------------------------------------
B|---------------------------------------
G|----------5-5-5-5----------------------
D|-5-5-5-5--5-5-5-5--7-7-7-7-7-7---------
A|-5-5-5-5--3-3-3-3--7-7-7-7-7-7---------
E|-3-3-3-3-----------5-5-5-5-5-5---------
                    (Palm Muted)

coro(guitarra 1)
e|----------------------------------------------------------------
B|----------------------------------------------------------------
G|---------------7-7-7-7-9-9-9-9----------------------------------
D|--9-9-9-9-9-9------------------------------7-7-7-7--------------
A|-------------------------------9-9-9-9-9-9---------10-10-10-9-9-
E|----------------------------------------------------------------

coro (guitarra 2)
e|---------------------------------------
B|---------------------------------------
G|----------5-5-5-5----------------------
D|-5-5-5-5--5-5-5-5--7-7-7-7-7-7---------
A|-5-5-5-5--3-3-3-3--7-7-7-7-7-7---------
E|-3-3-3-3-----------5-5-5-5-5-5---------

intermedio

    E5    C5    G5    D5    E5    C5  
e|---------------------------------------------
B|---------------------------------------------
G|------55555-------77777-------55555-5---5----
D|22222-55555-55555-77777-22222-55555-5-5-5-5-5
A|22222-33333-55555-55555-22222-33333-3-5-3-5-5
E|00000-------33333-------00000---------3---3-3
            
Submit corrections

comments powered by Disqus
↑ Back to top | Caramelos De Cianuro Tabs for Sanitarios. Lyrics for acoustic guitar and electric guitar. 1 Tablatures and chords are parodies/interpretations of the original songs. You may use it for private study, scholarship, research or language learning purposes only