» » »

Caramelos De Cianuro, Sanitarios Tabs (ver.1)

Artists:  A B C D E F G H I J K L M N O P Q R S T U V W X Y Z # 

Sanitarios Tabs (ver.1)

Caramelos De Cianuro Tabs
 Rating:
4/5 (5 votes)
Sanitarios lessons Tabs too difficult? Try these video lessons and learn fast
                
Todas las tablaturas que he visto de esta cancion estan mal, de modo que 
aqui les dejo la tablatura que correcta, le falta unas cositas pero esta
casi completa y mucho mejor que las anteriores.  Cuando la toquen se van
a dar cuenta de la diferencia.

 --------------------
| !!!!IMPORTANTE!!!! |
 --------------------

Deben afinar su guitarra en "D", o sea "D G C F A d"



INTRO (ya con la guitarra afinada en el tono mas bajo)

d|-------------------------------------------------|
A|-------------------------------------------------|
F|-------------------------------------------------|
C|----------------------7---7---7-------2222-------|
G|-----7---7--7-----5-5---5---5---5-----2222-------|
D|--5-5--5--5---5-----------------------0000-------|
                 (Apagado = p.m.)
    
                        

		      (se repite en la cantada)
      1 guitarra             		               2 guitarra 
d|---------------------------|		d|-----------------------------|
A|---------------------------|		A|-------------10-10-----------|    X2
F|--------777----------------|		F|---999----77--7-7------------|
C|--777---777---222222-------|		C|---777----77--7-7----9999----|Esta parte es + o - como
G|--777---555---222222-------|		G|---------------------7777----|hacer el ritmo de la prima
D|--555---------000000-------|		D|-----------------------------|solo que en apagado.
    p.m.  p.m.   p.m.				             p.m.   p.m.   p.m.  p.m.


DISTORSION

      1 guitarra             		
d|---------------------------|		
A|---------------------------|	
F|--------777----------------|	
C|--777---777---222222-------|	
G|--777---555---222222-------|	
F|--555---------000000-------|
	
     2 guitarra
d|----------------------------------------------------------------------|
A|----------------------------------------------------------------------|
F|--6-6-6-6-6-6---9-9-9-9--11-11-11-11----------------------------------|
C|----------------------------------------6-6-6-6-6-6-9-9-9-7-7-7-6-6-6-| X2
G|----------------------------------------------------------------------|
F|----------------------------------------------------------------------|


VERSO 1
(Pues la suerte nos coloca frente a frente aqui hoy....)

      2 guitarra
d|--------------------------------------10|
A|-------------10-10------------8---10----|
F|---999----77--7-7-----------------------|
C|---777----77--7-7----9999---------------|
G|---------------------7777---------------|
F|----------------------------------------|
 
(Con la musica tan alta no hay comunicacion...)

      1 guitarra             		               2 guitarra 
d|---------------------------|			d|-----------------------------|
A|---------------------------|			A|-------------10-10-----------|    
F|--------777----------------|			F|---999----77--7-7------------|
C|--777---777---222222-------|			C|---777----77--7-7----9999----|
G|--777---555---222222-------|			G|---------------------7777----|
F|--555---------000000-------|			F|-----------------------------|
    p.m.  p.m.   p.m.				     p.m.   p.m.   p.m.  p.m.



CORO
(Te veo en dos minutos en el fondo de los sanitarios...)
      1 guitarra             		               2 guitarra 
d|---------------------------|			d|-----------------------------|
A|---------------------------|			A|-------------10-10-----------|    
F|--------777----------------|			F|---999----77--7-7------------|     
C|--777---777---222222-------|			C|---777----77--7-7----9999----|
G|--777---555---222222-------|			G|---------------------7777----|
F|--555---------000000-------|			F|-----------------------------|


LO DEMAS ES EXACTAMENTE IGUAL.. EL SEGUNDO VERSO Y EL SIGUIENTE CORO
lo unico que cambia en el 2 coro es la segunda guitarra que toca la
prima del comienzo, al escuchar se dan cuenta.


RIFF 
(Y no tengo que hablar, y no tienes que hablar....)

d|----------------------------------------------------------------------------|
A|----------------------------------------------------------------------------|
F|----------------------------------------------------------------------------|
C|---666666--777777--777777--222222--444444--7777777--77-77-77--222--22-22----| 
G|---444444--555555--777777--222222--444444--5555555--77-77-77--222--22-22----|
F|-------------------555555--000000--222222-----------55-55-55--000--00-00----|

Despues viene lo mismo en apagado.
d|----------------------------------------------------------------------------|
A|----------------------------------------------------------------------------|
F|----------------------------------------------------------------------------|
C|---666666--777777--777777--222222--444444--7777777--77-77-77--222--22-22----| 
G|---444444--555555--777777--222222--444444--5555555--77-77-77--222--22-22----|
F|-------------------555555--000000--222222-----------55-55-55--000--00-00----|
      p.m.    p.m.     p.m.    p.m.    p.m.   p.m.


   2 guitarra  (la primita de fondo)
d|------10-------------------------10------|
A|---10----10---7-8-------------10----10---|
F|-----------------------------------------|
C|-----------------------------------------|  Y al final antes de que empiece a cantar el coro
G|-----------------------------------------|  mueven la llema de los dedos sobre las dos primeras
F|-----------------------------------------|  cuerdas para dar ese efecto de DJ que se escucha.

CORO
Se repite como el 2 coro coin la segunda guitarra haciendo la prima.
            
Submit corrections

comments powered by Disqus
↑ Back to top | Caramelos De Cianuro Tabs for Sanitarios. Lyrics for acoustic guitar and electric guitar. Tablatures and chords are parodies/interpretations of the original songs. You may use it for private study, scholarship, research or language learning purposes only