» » »

Retrovisor Bass tabs (ver.1)

Artists:  A B C D E F G H I J K L M N O P Q R S T U V W X Y Z # 

Retrovisor Bass tabs (ver.1)

Caramelos De Cianuro
Rating:
0/5 (0 votes)

Hard to play? Try these video lessons and learn fast.
                Intro
G--------------------------------|--------------------------------|
D--------------------------------|--------------------------------|
E-------------------1-1-1-1-0-0-0|-------------------3-3-3-3-1-1-1| x2
D-3-3-3-3-3-3-3-3-3--------------|-0-0-0-0-0-0-0-0-0--------------|

Verso
G--------------------------------|--------------------------------|
D--------------------------------|--------------------------------|
E-------------------1-1-1-1-0-0-0|-------------------3-3-3-3-1-1-1| x2
D-3-3-3-3-3-3-3-3-3--------------|-0-0-0-0-0-0-0-0-0--------------|
 
Coro... Son las mismas notas lo unico que cambia es el ritmo.

Verso (igual que el primero)
 
Coro
G--------------------------------|--------------------------------|
D--------------------------------|--------------------------------|
E-------------------1-1-1-1-0-0-0|-------------------3-3-3-3-1-1-1| x2
D-3-3-3-3-3-3-3-3-3--------------|-0-0-0-0-0-0-0-0-0--------------|

G-----------------------------------------------------------------------------------------------------|
D-----------------------------------------------------------------------------------------------------|
E-3~-3-3-3-3-3-1~-1-1-1-1-1---------------------------0~-0-0-0-0-0-1~-1-1-1-1-1-----------------------|
D---------------------------3~-3-3-3-3-3-0~-0-0-0-0-0---------------------------3~-3-3-3-3-3-3-3-3-3-3|

Verso (igual que el primero)

Coro
G--------------------------------|--------------------------------|
D--------------------------------|--------------------------------|
E-------------------1-1-1-1-0-0-0|-------------------3-3-3-3-1-1-1| x2
D-3-3-3-3-3-3-3-3-3--------------|-0-0-0-0-0-0-0-0-0--------------|

G--------------------------------------------------------|
D--------------------------------------------------------|
E---------------------------0~-0-0-0-0-0-0-1~-1-1-1-1-1-1| x4
D-3~-3-3-3-3-3-5~-5-5-5-5-5------------------------------|

Verso
            
Hard to play? Try these video lessons and learn fast. | Correct




comments powered by Disqus
↑ Back to top | Tablatures and chords are parodies/interpretations of the original songs. You may use it for private study, scholarship, research or language learning purposes only