» » »

La Terraza Tabs (ver.1)

Artists:  A B C D E F G H I J K L M N O P Q R S T U V W X Y Z # 

La Terraza Tabs (ver.1)

Caramelos De Cianuro
Rating:
0/5 (0 votes)

Hard to play? Try these video lessons and learn fast.
                Caramelos de Cianuro - La Terraza      
      Frisbee (2002)  

Intro:
e|-0--2--0--0--3--2--0-----------------------
B|-0--3--1--0--3--3--1-----------------------
G|-0--2--2--0--0--2--2----------------------- 
D|-2--0--2--2--0--0--2-----------------------
A|-2--0--0--2--2--0--0-----------------------
E|-0--0--0--0--3--0--0-----------------------

	Con Wah-Wah
e|-------------------------------------------
B|------------------------------------------- 
G|------------------------------------------- 
D|-------------------------------------------
A|-5-7-7--5-7-7--5-7--5-7-7--5-7-7-----------
E|-------------------------------------------

	Con Wah-Wah
e|-------------------------------------------
B|-------------------------------------------
G|------------------------------------------- 
D|-------------------------------------------
A|-5-7--5-7-7--5-7-7--5-7--5-7-7--5-7-7--5-7-
E|-------------------------------------------

	Con Wah-Wah
e|-------------------------------------------
B|-------------------------------------------
G|------------------------------------------- 
D|-------------------------------------------
A|-5-7-7--5-7-7--5-7--5-7-7--5-7-7-----------
E|-------------------------------------------

	Con Wah-Wah
e|-------------------------------------------
B|-------------------------------------------
G|------------------------------------------- 
D|-5---5vvvvv----5vvvvv----------------------
A|---7--------7---------7--------------------
E|-------------------------------------------

Verso:
e|-0--2--0--0--3--2--x-----------------------
B|-0--3--1--0--3--3--x-----------------------
G|-0--2--2--0--0--2--5----------------------- 
D|-2--0--2--2--0--0--5-----------------------
A|-2--0--0--2--2--0--3-----------------------
E|-0--0--0--0--3--0--x-----------------------

Coro:
e|-x-x-x--x-x--x-x-x-x-x---------------------
B|-x-x-x--x-x--x-x-x-x-x---------------------
G|-0-0-0--x-x--5-5-5-5-5--------------------- 
D|-2-2-2--5-5--5-5-5-5-5---------------------
A|-2-2-2--5-5--3-3-3-3-3---------------------
E|-0-0-0--3-3--------------------------------

e|-x-x--x-x--x-x-x-x-x-----------------------
B|-x-x--x-x--x-x-x-x-x-----------------------
G|-x-x--5-5--0-0-0-0-0----------------------- 
D|-7-7--5-5--2-2-2-2-2-----------------------
A|-7-7--3-3--2-2-2-2-2-----------------------
E|-5-5--x-x--0-0-0-0-0-----------------------

e|-x-x-x--x-x--x-x-x-x-x---------------------
B|-x-x-x--x-x--x-x-x-x-x---------------------
G|-0-0-0--x-x--5-5-5-5-5-----------7-7-7-7--- 
D|-2-2-2--5-5--5-5-5-5-5--5-5-5-5--7-7-7-7---
A|-2-2-2--5-5--3-3-3-3-3--5-5-5-5--5-5-5-5---
E|-0-0-0--3-3-------------3-3-3-3------------

Interlude:
e|-3--2--0--2--0--x--------------------------
B|-3--3--0--3--3--4--------------------------
G|-0--2--0--2--0--0-------------------------- 
D|-0--0--2--0--2--2--------------------------
A|-2--0--2--0--3--3--------------------------
E|-3--0--0--0--x--x--------------------------
            
Hard to play? Try these video lessons and learn fast. | Correct




comments powered by Disqus
↑ Back to top | Tablatures and chords are parodies/interpretations of the original songs. You may use it for private study, scholarship, research or language learning purposes only