» » »

La Llama Tabs (ver.1)

Artists:  A B C D E F G H I J K L M N O P Q R S T U V W X Y Z # 

La Llama Tabs (ver.1)

Caramelos De Cianuro
Rating:
0/5 (0 votes)

Hard to play? Try these video lessons and learn fast.
                Intro:

Entra la guitarra junto con el "silbido"

E |--------------------------------------------------|
B |--------------------------------------------------|
G |------2--2--------------5--5----------------------|
D |------2--2---3--3-------5--5----5-5-5-------------|
A |------0--0---3--3-------3--3----5-5-5-------------|
E |-------------1--1---------------3-3-3-------------|

"silbido" del intro 

E |-----------------------|
B |--------15-------13----|
G |----12------12---------|
D |-----------------------|
A |-----------------------|
E |-----------------------|

Versos y coros igual:

E |--------------------------------------------------|
B |--------------------------------------------------|
G |------2--2--------------5--5----------------------|
D |------2--2---3--3-------5--5----5-5-5-------------|
A |------0--0---3--3-------3--3----5-5-5-------------|
E |-------------1--1---------------3-3-3-------------|

Coro:
 
     es    la    llama q    me quema por   dentro
E |-------------------------------------------------|
B |-------------------------------------------------|
G |--------2--2-------------5--5--------------------|
D |--------2--2---3--3------5--5------5--5--5-------|
A |--------0--0---3--3------3--3------5--5--5-------|
E |---------------1--1----------------3--3--3-------|

     y    no    me  deja  en paz...  
 
E |-------------------------------------------------|
B |-------------------------------------------------|
G |--------2--2-------------5--5--------------------|
D |--------2--2---3--3------5--5------5--5--5-------|
A |--------0--0---3--3------3--3------5--5--5-------|
E |---------------1--1----------------3--3--3-------|

Interlude:

    Ha sido tanto que me has dado, yo nunca pido demasiado...

E |-----------------------------------------------------------------|
B |-----------------------------------------------------------------|
G |------------------3-x-x--3--x------------------------------------|
D |----7-x-x--5--x---3-x-x--3--x------3-x-x--3--x---5-5-5-5-5-5--5--|
A |----7-x-x--5--x---5-x-x--5--x------3-x-x--3--x---5-5-5-5-5-5--5--|
E |----5-x-x--7--x--------------------1-x-x--1--x---3-3-3-3-3-3--3--|

Coro:
 
     es    la    llama q    me quema por   dentro
E |-------------------------------------------------|
B |-------------------------------------------------|
G |--------2--2-------------5--5--------------------|
D |--------2--2---3--3------5--5------5--5--5-------|
A |--------0--0---3--3------3--3------5--5--5-------|
E |---------------1--1----------------3--3--3-------|

     y    no    me  deja  en paz...  
 
E |-------------------------------------------------|
B |-------------------------------------------------|
G |--------2--2-------------5--5--------------------|
D |--------2--2---3--3------5--5------5--5--5-------| 
A |--------0--0---3--3------3--3------5--5--5-------|
E |---------------1--1----------------3--3--3-------|

Coro:
 
     es    la    llama q    me quema por   dentro
E |-------------------------------------------------|
B |-------------------------------------------------|
G |--------2--2-------------5--5--------------------|
D |--------2--2---3--3------5--5------5--5--5-------|
A |--------0--0---3--3------3--3------5--5--5-------|
E |---------------1--1----------------3--3--3-------|

     y    no    me  deja  en paz...  
 
E |-------------------------------------------------|
B |-------------------------------------------------|
G |--------2--2-------------5--5--------------------|
D |--------2--2---3--3------5--5------5--5--5-------|
A |--------0--0---3--3------3--3------5--5--5-------|
E |---------------1--1----------------3--3--3-------|

Bueno esta es una buena rola... muy facil de tocar 
y bueno vzla rules xD jajaja viva venezuela
cualkier reclamo, correccion, insulto y/o mentada de madre
de caramelos q no estan en paginas con gusto los pasare... =)
            
Hard to play? Try these video lessons and learn fast. | Correct




comments powered by Disqus
↑ Back to top | Tablatures and chords are parodies/interpretations of the original songs. You may use it for private study, scholarship, research or language learning purposes only