» » »

Caramelos De Cianuro, Dolor Y Pasion Tabs (ver.1)

Artists:  A B C D E F G H I J K L M N O P Q R S T U V W X Y Z # 

Dolor Y Pasion Tabs (ver.1)

Caramelos De Cianuro Tabs
 Rating:
4.2/5 (5 votes)
Dolor Y Pasion lessons Tabs too difficult? Try these video lessons and learn fast
                Intro: 

E |---------------------------------------------------------------| 
B |---12------12------13------13------12------12--------13--------| 
G |-------12------12------12------12------12------12----12--------| 
D |---------------------------------------------------------------| 
A |---------------------------------------------------------------| 
E |---------------------------------------------------------------| 


Intro: comienzas los riff mientras sigue el intro (abajo)
  
E |------------------------------------------------------------------------| 
B |---12------12------13------13------12------12------10------10-----------| 
G |-------12------12------12------12------12------12------12------12-------| 
D |------------------------------------------------------------------------| 
A |------------------------------------------------------------------------| 
E |------------------------------------------------------------------------| 

E |------------------------------------------------------------------------| 
B |---12------12------13------13------12------12------10-------------------| 
G |-------12------12------12------12------12------12------12---12----------| 
D |------------------------------------------------------------------------| 
A |------------------------------------------------------------------------| 
E |------------------------------------------------------------------------|

Guitarra 2:
intro y versos

E |------------------------------------------------------| 
B |------------------------------------------------------| 
G |--------555---------77---55---------------444---555---| (bis) 
D |--555---555---222---77---55---555---777---444---555---| 
A |--555---333---222---55---33---555---777---222---333---| 
E |--333---------000-------------333---555---------------|

a la 2da vuelta entra la primera guitarra con el punteado del intro

coro:

E |------------------------------------------------------------------------|
B |------------------------------------------------------------------------|
G |------------77777777--99999999--55555555----------------------77777777--| 
D |--55555555--77777777--99999999--55555555--55555555--77777777--77777777--|
A |--55555555--55555555--77777777--33333333--55555555--77777777--55555555--|
E |--33333333--------------------------------33333333--55555555------------|

E |---------------------------------------------------------------------------------| 
B |---------------------------------------------------------------------------------| 
G |------------77777777--99999999--55555555----------------------7------------------| 
D |--55555555--77777777--99999999--55555555--55555555--77777777--7-(dejar sonando)--| 
A |--55555555--55555555--77777777--33333333--55555555--77777777--5------------------| 
E |--33333333--------------------------------33333333--55555555---------------------|

entra con la 1era guitarra con el punteo (1:08 min)

E |------------------------------------------------------| 
B |------------------------------------------------------| 
G |--------555---------77---55---------------444---555---|  
D |--555---555---222---77---55---555---777---444---555---| (bis)
A |--555---333---222---55---33---555---777---222---333---| 
E |--333---------000-------------333---555---------------|

Verso:
Pasión, cuanto tiempo dejarás que esté mi cama vacía

E |------------------------------------------------------| 
B |------------------------------------------------------| 
G |--------555---------77---55---------------444---555---| (bis) 
D |--555---555---222---77---55---555---777---444---555---| 
A |--555---333---222---55---33---555---777---222---333---| 
E |--333---------000-------------333---555---------------|

Coro:

E |------------------------------------------------------------------------|
B |------------------------------------------------------------------------|
G |------------77777777--99999999--55555555----------------------77777777--| 
D |--55555555--77777777--99999999--55555555--55555555--77777777--77777777--|
A |--55555555--55555555--77777777--33333333--55555555--77777777--55555555--|
E |--33333333--------------------------------33333333--55555555------------|

E |------------------------------------------------------------------------|
B |------------------------------------------------------------------------|
G |------------77777777--99999999--55555555----------------------77777777--|
D |--55555555--77777777--99999999--55555555--55555555--77777777--77777777--|
A |--55555555--55555555--77777777--33333333--55555555--77777777--55555555--|
E |--33333333--------------------------------33333333--55555555------------|

Interlude:

E |--------------------------------------------------------------|
B |--------------------------------------------------------------|
G |--5-4-77777777-----5-4-77777777-----5-4-----------------------|
D |--5-4-77777777-----5-4-77777777-----5-4-7---------------------|
A |--3-2-55555555-----3-2-55555555-----3-2-7---(dejar sonando)---|
E |----------------------------------------5---------------------|

Coro:

E |------------------------------------------------------------------------|
B |------------------------------------------------------------------------|
G |------------77777777--99999999--55555555----------------------77777777--| 
D |--55555555--77777777--99999999--55555555--55555555--77777777--77777777--|
A |--55555555--55555555--77777777--33333333--55555555--77777777--55555555--|
E |--33333333--------------------------------33333333--55555555------------|

E |------------------------------------------------------------------------|
B |------------------------------------------------------------------------|
G |------------77777777--99999999--55555555----------------------77777777--|
D |--55555555--77777777--99999999--55555555--55555555--77777777--77777777--|
A |--55555555--55555555--77777777--33333333--55555555--77777777--55555555--|
E |--33333333--------------------------------33333333--55555555------------|

Fin.....

Bueno esta es una buena rola... muy facil de tocar 
y bueno vzla rules xD jajaja viva venezuela
cualkier reclamo, correccion, insulto y/o mentada de madre
de caramelos q no estan en paginas con gusto los pasare... =)

PATTYYYYYYYY i love u :) xD
            
Submit corrections

comments powered by Disqus
↑ Back to top | Caramelos De Cianuro Tabs for Dolor Y Pasion. Lyrics for acoustic guitar and electric guitar. Tablatures and chords are parodies/interpretations of the original songs. You may use it for private study, scholarship, research or language learning purposes only