» » »

Carajo, Una Oportunidad Tabs (ver.1)

Artists:  A B C D E F G H I J K L M N O P Q R S T U V W X Y Z # 

Una Oportunidad Tabs (ver.1)

Carajo Tabs
 Rating:
4/5 (4 votes)
Una Oportunidad lessons Tabs too difficult? Try these video lessons and learn fast
1
                --------------------------------------------------------------------------
                             Carajo - Una Oportunidad
--------------------------------------------------------------------------

Afinación: A# F A# D# G C

Intro: (delay y distorsión leve)
|5-5-5--5--5-5-5-5-5-5-5-5--5| |5-5-5-5-5-5-5--5|
|6-6-6--6--6-6-6-8-8-6-6-6--6| |6-6-6-8-8-6-6--6| 
|7-7-7--7--7-7-7-7-7-7-7-7--7| |7-7-7-7-7-7-7--7|
|----------------------------| |----------------|x3
|----------------------------| |----------------|
|----------------------------| |----------------|

Estrofa 1: (delay y distorsión leve)
|6-5--------5--8-6-5--------5--6-5--------5--6-5--|
|----6----6-6--------6----6-6------5----6-6------6|
|-------7---------------7-------------7-----------|
|-------------------------------------------------|
|-------------------------------------------------|
|-------------------------------------------------|

|5-5-5--5--5-5-5-5-5-5-5-5--5| |5-5-5-5-5-5-5--5|   |5-5-5-5-5-5-5|
|6-6-6--6--6-6-6-8-8-6-6-6--6| |6-6-6-8-8-6-6--6|   |6-6-6-8-8-6-6|
|7-7-7--7--7-7-7-7-7-7-7-7--7| |7-7-7-7-7-7-7--7|   |7-7-7-7-7-7-7|
|----------------------------| |----------------|x2 |-------------|
|----------------------------| |----------------|   |-------------|
|----------------------------| |----------------|   |-------------|

|----------------------------------------------------------------------|
|6-x-x-x-6-x-x-x-x-6-x-x-x-8-8-10-10--7-x-x-x-7-x-x-x-x-7-x-x-x-6-6-5-5|
|x-x-x-x-x-x-x-x-x-x-x-x-x-x-x--x--x--x-x-x-x-x-x-x-x-x-x-x-x-x-x-x-x-x|
|3-x-x-x-3-x-x-x-x-3-x-x-x-5-5--7--7--3-x-x-x-3-x-x-x-x-3-x-x-x-3-3-2-2|x2
|----------------------------------------------------------------------|
|----------------------------------------------------------------------|

Estribillo 1:
|-----------------------------------------------------------|
|-----------------------------------------------------------|
|3-3-3-3-3-5-5-5-5-5-----------7-7-7-7-7-3-3-3-3-3-5-5-5-5-5|
|3-3-3-3-3-5-5-5-5-5-5-5-5-5-5-7-7-7-7-7-3-3-3-3-3-5-5-5-5-5|
|1-1-1-1-1-3-3-3-3-3-5-5-5-5-5-5-5-5-5-5-1-1-1-1-1-3-3-3-3-3|
|--------------------5-5-5-5-5------------------------------|

|---------------------|
|6---6-----6---6------|
|x---x-----x---x-3-3-3|
|3---3-----3---3-3-3-3|x2
|----------------1-1-1|
|--0---0-0---0--------|

Estrofa 2: (delay y distorsión leve)
|5-5-5--5--6-5-------5--8-6-5--| |5-5-5--5--5-5-5-5-5|
|6-6-6--6------6---6-6--------6| |6-6-6--6--6-6-6-8-8|
|7-7-7--7--------7-------------| |7-7-7--7--7-7-7-7-7|
|------------------------------| |-------------------|x3
|------------------------------| |-------------------|
|------------------------------| |-------------------|

|-------------------------------------------------------------------|
|6-x-x-x-6-x-x-x-x-6-x-x-x-8-8-9-9-6-x-x-x-6-x-x-x-x-5-x-x-x-6-6-5-5|
|x-x-x-x-x-x-x-x-x-x-x-x-x-x-x-x-x-x-x-x-x-x-x-x-x-x-x-x-x-x-x-x-x-x|
|3-x-x-x-3-x-x-x-x-3-x-x-x-5-5-7-7-3-x-x-x-3-x-x-x-x-3-x-x-x-3-3-2-2|x2
|-------------------------------------------------------------------|
|-------------------------------------------------------------------|

Estribillo 2: 
|-----------------------------------------------------------|
|-----------------------------------------------------------|
|3-3-3-3-3-5-5-5-5-5-----------7-7-7-7-7-3-3-3-3-3-5-5-5-5-5|
|3-3-3-3-3-5-5-5-5-5-5-5-5-5-5-7-7-7-7-7-3-3-3-3-3-5-5-5-5-5|
|1-1-1-1-1-3-3-3-3-3-5-5-5-5-5-5-5-5-5-5-1-1-1-1-1-3-3-3-3-3|
|--------------------5-5-5-5-5------------------------------|

|---------------------|
|6---6-----6---6------|
|x---x-----x---x-3-3-3|
|3---3-----3---3-3-3-3|
|----------------1-1-1|
|--0---0-0---0--------|

|-----------------------------------------------------------|
|-----------------------------------------------------------|
|3-3-3-3-3-5-5-5-5-5-----------7-7-7-7-7-3-3-3-3-3-5-5-5-5-5|
|3-3-3-3-3-5-5-5-5-5-5-5-5-5-5-7-7-7-7-7-3-3-3-3-3-5-5-5-5-5|
|1-1-1-1-1-3-3-3-3-3-5-5-5-5-5-5-5-5-5-5-1-1-1-1-1-3-3-3-3-3|
|--------------------5-5-5-5-5------------------------------|

|-----------------------------------|
|------6-6-6-6-5-5-5----------------|
|------x-x-x-x-x-x-x-x-x-x-3-3------|
|------3-3-3-3-2-2-2-x-x-x-3-3---5-7|x2
|--------------------x-x-x-1-1-0-5-7|
|0-0-0-------------------------0-5-7|

Intermedio:
|--------------------|
|--------------------|
|--------------------|
|--------------------|x4
|0-0-0-0-0-0--0-0-0-0|
|0-0-0-0-0-0--0-0-0-0|

|-----3-3-3-3-5-5-5-5-------6-6-6-6-5-5-5-5|   |----------------|
|-----3-3-3-3-3-3-3-3-------3-3-3-3-3-3-3-3|   |----------------|
|------------------------------------------|   |----------------|
|------------------------------------------|x4 |----------------| 
|------------------------------------------|   |0-0-0-0--0-0-0-0|
|0-0-0----------------0-0-0----------------|   |0-0-0-0--0-0-0-0|

Estribillo 3:
|-----------------------------------------------------------|
|-----------------------------------------------------------|
|3-3-3-3-3-5-5-5-5-5-----------7-7-7-7-7-3-3-3-3-3-5-5-5-5-5|
|3-3-3-3-3-5-5-5-5-5-5-5-5-5-5-7-7-7-7-7-3-3-3-3-3-5-5-5-5-5|
|1-1-1-1-1-3-3-3-3-3-5-5-5-5-5-5-5-5-5-5-1-1-1-1-1-3-3-3-3-3|
|--------------------5-5-5-5-5------------------------------|

|---------------------------------------|
|---------------------------------------|
|----------7-7-7-7-7-3-3-3-3-3-5-5-5-5-5|
|5-5-5-5-5-7-7-7-7-7-3-3-3-3-3-5-5-5-5-5|
|5-5-5-5-5-5-5-5-5-5-1-1-1-1-1-3-3-3-3-3|
|5-5-5-5-5------------------------------|


|-----------------------------------|
|------6-6-6-6-5-5-5----------------|
|------x-x-x-x-x-x-x-x-x-x-3-3------|
|------3-3-3-3-2-2-2-x-x-x-3-3---5-7|x4
|--------------------x-x-x-1-1-0-5-7|
|0-0-0-------------------------0-5-7|

Outro:
|--------------------|   |-----------|
|--------------------|   |-----------|
|--------------------|   |-----------|
|--------------------|x3 |-----------|
|0-0-0-0-0-0--0-0-0-0|   |0-0-0-0-0-0|
|0-0-0-0-0-0--0-0-0-0|   |0-0-0-0-0-0|

Estructura:
Intro (0:07 – 0:26)
Estrofa 1 (0:26 – 1:08)
Estribillo 1 (1:08 – 1:27)
Estrofa 2 (1:27 – 2:05)
Estribillo 2 (2:05 – 2:40)
Intermedio (2:44 – 3:06)
Estribillo 3 (3:06 – 3:40)
Outro (3:40 – 3:48)

| x  Mute note
===========================================================================
            
Submit corrections

comments powered by Disqus
↑ Back to top | Carajo Tabs for Una Oportunidad. Lyrics for acoustic guitar and electric guitar. 1 Tablatures and chords are parodies/interpretations of the original songs. You may use it for private study, scholarship, research or language learning purposes only