» » »

Carajo, Rescatarse Tabs (ver.1)

Artists:  A B C D E F G H I J K L M N O P Q R S T U V W X Y Z # 

Rescatarse Tabs (ver.1)

Carajo Tabs
 Rating:
4/5 (4 votes)
Rescatarse lessons Tabs too difficult? Try these video lessons and learn fast
                --------------------------------------------------------------------------------
                             Carajo – Rescatarse
--------------------------------------------------------------------------------

Afinación: A# F A# D# G C

Intro: (con phaser)
|------------------------|
|------------------------|
|------------------------|
|3-3-3-3----3-3-3-3------|x4
|1-1-1-1----1-1-1-1------|
|--------0----------0-0-0|

Riff 1:
|-------------------|
|-------------------|
|-------------------|
|-------------------|x4
|3-0-1-1-0-3-0-1-2-0|
|3-0-1-1-0-3-0-1-2-0|

Riff 2:
|------------------------|
|------------------------|
|------------------------|
|3-3-3-3----3-3-3-3------|x2
|1-1-1-1----1-1-1-1------|
|--------0----------0-0-0|

Riff 3:
|------------------------|   |---------------|
|------------------------|   |---------------|
|------------------------|   |---------------|
|3-3-3-3----3-3-3-3------|x3 |3-3-3-3--------|
|1-1-1-1----1-1-1-1------|   |1-1-1-1-0---8\1|
|--------0----------0-0-0|   |--------0---8\1|

Estrofa:
|---------------------------------|
|---------------------------------|
|---------------------------------|
|---------------------------------|x4
|3-3-3-0-0-0-1-1-0-3-3-3-0-0-1-2-0|
|3-3-3-0-0-0-1-1-0-3-3-3-0-0-1-2-0|
 x x x x x x x x x x x x x x

Estribillo:
|---------------------------------------------------|
|---------------------------------------------------|
|---------------------------------------------------|
|------------------------------------4-4-4-4-5-5-5-5|x4
|1-1-1-0-0-0-1-1-1-0-0-0-1-1-1-0-0-0-4-4-4-4-5-5-5-5|
|1-1-1-0-0-0-1-1-1-0-0-0-1-1-1-0-0-0-4-4-4-4-5-5-5-5|

Intermedio (con phaser)
|----------------------------------------------------------------------------|
|----------------------------------------------------------------------------|
|7-7-7-7-7-7-7-10-10-10-10-10-10-10-12-12-12-12-12-12-12-12-12-12-12-12-12-12|
|x-x-x-x-x-x-x--x--x--x--x--x--x--x--x--x--x--x--x--x--x--x--x--x--x--x--x--x|x2
|5-5-5-5-5-5-5--8--8--8--8--8--8--8-10-10-10-10-10-10-10-10-10-10-10-10-10-10|
|----------------------------------------------------------------------------|

|-------------------|   |---------------------|
|-------------------|   |---------------------|
|-------------------|   |---------------------|
|------3-3----------|x3 |------------3-3-3-3-3|
|0-0-0-1-1-1-1-1-5-5|   |0-0-0-3-3-3-1-1-1-1-1|
|0-0-0-----1-1-1-5-5|   |0-0-0-3-3-3----------|

|-------------------|   |---------------------|
|-------------------|   |---------------------|
|-------------------|   |---------------------|
|------3-3----------|x3 |------------3-3-3-3-3|
|0-0-0-1-1-1-1-1-5-5|   |0-0-0-3-3-3-1-1-1-1-1|
|0-0-0-----1-1-1-5-5|   |0-0-0-3-3-3----------|

Outro
|------------------------|   |---|
|------------------------|   |---|
|------------------------|   |---|
|3-3-3-3----3-3-3-3------|x4 |0--|
|1-1-1-1----1-1-1-1------|   |0--| dejar sonar el ultimo acorde
|--------0----------0-0-0|   |0--|

Estructura:
Intro (0:00 – 0:13)
Riff 1 (0:13 – 0:27)
Estrofa (0:27 – 0:40)
Riff 1 (0:40 – 0:54)
Riff 2 (0:54 – 1:01)
Estrofa (1:01 – 1:14)
Riff 1(1:14 – 1:28)
Riff 3 (1:28 – 1:41)
Estribillo (1:41 – 2:09)
Intermedio (2:09 – 2:49)
Outro (2:49 – 3:22)

| \  slide down
| x  Mute note
===============================================================================
            
Submit corrections

comments powered by Disqus
↑ Back to top | Carajo Tabs for Rescatarse. Lyrics for acoustic guitar and electric guitar. Tablatures and chords are parodies/interpretations of the original songs. You may use it for private study, scholarship, research or language learning purposes only