» » »

Carajo, Hacerse Cargo Tabs (ver.1)

Artists:  A B C D E F G H I J K L M N O P Q R S T U V W X Y Z # 

Hacerse Cargo Tabs (ver.1)

Carajo Tabs
 Rating:
4/5 (4 votes)
Hacerse Cargo lessons Tabs too difficult? Try these video lessons and learn fast
                ---------------------------------------------------------------------------
                             Carajo - Hacerse Cargo
---------------------------------------------------------------------------
Afinación: A# F A# D# G C

Intro y Puente: 
|------------------------------------------------------------------------|
|----------5-5-5-5-5-5-5-5-5-10-10-10-10-10-10-10-10-10-5-5-5-5-5-5-5-5-5|
|----------x-x-x-x-x-x-x-x-x--x--x--x--x--x--x--x--x--x-x-x-x-x-x-x-x-x-x|
|----0-0-0-2-2-2-2-2-2-2-2-2--6--6--6--6--6--6--6--6--6-2-2-2-2-2-2-2-2-2|
|------------------------------------------------------------------------|
|10\---------------------------------------------------------------------|
                                        
Riff 1:
|---------------------|    
|---------------------|   
|---------------------|   
|---------------------|
|2-0-2-2-3-2-0-2-3-3-3|    
|2-0-2-2-3-2-0-2-3-3-3|    
                                         
Estrofa:
|----------------|
|----------------|
|----------------|
|----------------|x4
|2-0-2--2-2---5-6|
|2-0-2--2-2---5-6|

Estribillo 1:
|-----------------------------------|   |--------------------|
|--------------------------5-5-5-5-5|   |--------------------|
|5-5-5-5-5-5-2-2-2-2-2-2---4-4-4-4-4|   |5-5-5-5-5-5-2-2-2-2-|
|5-5-5-5-5-5-2-2-2-2-2-2-2-2-2-2-2-2|x2 |5-5-5-5-5-5-2-2-2-2-|
|3-3-3-3-3-3-0-0-0-0-0-0-2-2-2-2-2-2|   |3-3-3-3-3-3-0-0-0-0-|
|------------------------2-2-2-2-2-2|   |--------------------|

Estribillo 2:
|-----------------------------------|   |--------------------|
|--------------------------5-5-5-5-5|   |--------------------|
|5-5-5-5-5-5-2-2-2-2-2-2---4-4-4-4-4|   |5-5-5-5-5-5-2-2-2-2-|
|5-5-5-5-5-5-2-2-2-2-2-2-2-2-2-2-2-2|x3 |5-5-5-5-5-5-2-2-2-2-|
|3-3-3-3-3-3-0-0-0-0-0-0-2-2-2-2-2-2|   |3-3-3-3-3-3-0-0-0-0-|
|------------------------2-2-2-2-2-2|   |--------------------|

Intermedio:
|-------------------|   |---------------------|
|-------------------|   |---------------------|
|-------------------|   |---------------------|
|-------------------|   |---------------------|x3
|2-0-2-2-2-2-2-2-2-2|   |2-2-0-2-2-2-2-2-2-2-2|
|2-0-2-2-2-2-2-2-2-2|   |2-2-0-2-2-2-2-2-2-2-2| 
       x x x x x x x             x x x x x x x 

|-----------|   |----------------------|
|-----------|   |-----------------5-5-5|
|-----------|   |----------------------|
|-----------|x4 |----------------------|x4
|2-0-2--2--2|   |2-0-2-0-2-0-2-2-------|
|2-0-2--2--2|   |2-0-2-0-2-0-2-2-------| 
       
|--------------------------0|    
|---------------------------|   
|---------------------------|   
|2-0-2-0-2-3-3-0-2-0-2-0-2--|x4 
|---------------------------|    
|---------------------------|    
 x x x x x x x x x x x x x x                                        

Riff 2:
|--------------------|    |-------------------|
|--------------------|    |-------------------|
|--------------------|    |-------------------|
|--------------------|x3  |-------------------|
|2-0-2--3-2-0-2-3-3-3|    |2-0-5-0-8-7-5-2-0-2|
|2-0-2--3-2-0-2-3-3-3|    |2-0-5-0-8-7-5-2-0-2|


Outro:
|---------------------|    |-------------------|
|---------------------|    |-------------------|
|---------------------|    |-------------------|
|---------------------|x5  |-------------------|
|2-0-2---3-2-0-2-3-3-3|    |2-0-5-0-8-7-5-2-0-2|
|2-0-2---3-2-0-2-3-3-3|    |2-0-5-0-8-7-5-2-0-2|

Estructura:

Intro y Puente (0:00 - 0:16)
Riff 1 x4 (0:16 - 0:27)
Estrofa (0:27 - 0:36)
Intro y Puente (0:36 - 0:44)
Riff 1 x2 (0:44 - 0:49)
Estribillo 1 (0:49 - 1:02)
Riff 1 x2 (1:02 - 1:08)
Estrofa (1:08 - 1:17)
Intro y Puente (1:17 - 1:25)
Riff 1 x2 (1:25 - 1:30)
Estribillo 2 (1:30 - 1:48)
Intermedio (1:48 - 2:30)
Riff 2 (2:30 - 2:40)
Estribillo 2 (2:40 - 2:59)
Outro (2:59 - 3:19)

| \  slide down
| x  Mute note
===========================================================================
            
Submit corrections

comments powered by Disqus
↑ Back to top | Carajo Tabs for Hacerse Cargo. Lyrics for acoustic guitar and electric guitar. Tablatures and chords are parodies/interpretations of the original songs. You may use it for private study, scholarship, research or language learning purposes only