» » »

Carajo, Estilo De Vida Tabs (ver.1)

Artists:  A B C D E F G H I J K L M N O P Q R S T U V W X Y Z # 

Estilo De Vida Tabs (ver.1)

Carajo Tabs
 Rating:
4/5 (4 votes)
Estilo De Vida lessons Tabs too difficult? Try these video lessons and learn fast
                -------------------------------------------------------------------------------
                             Carajo - Estilo de Vida
-------------------------------------------------------------------------------


Afinación: Drop Bb
1-C
2-G
3-Eb
4-Bb
5-F
6-Bb

Intro:
|0-0-0-0-0-4-4-4-4-4--------------------|
|3-3-3-3-3-7-7-7-7-7--------------------|
|2-2-2-2-2-6-6-6-6-6-5-5-5-5-5-5--------|
|0-0-0-0-0-4-4-4-4-4-5-5-5-5-5-5--------|x4
|0-0-0-0-0-4-4-4-4-4-3-3-3-3-3-3--------|
|0-0-0-0-0-4-4-4-4-4-------------3-3-3-3|
                                        
Estrofa:
|-----------------------------------------|    
|-----------------------------------------|   
|-----------------------------------------|   
|-----------------------------------------| 
|0-5-7-0-0-0-5-7-0-0-0-5-7-0-0-0-5-7-0-0-0|    
|0-5-7-0-0-0-5-7-0-0-0-5-7-0-0-0-5-7-0-0-0|    

|--------------------------------------0-0-0-0-0-0-0-0-3-3-3|    
|--------------------------------------3-3-3-3-3-3-3-3-6-6-6|   
|--------------------------------------2-2-2-2-2-2-2-2-5-5-5|   
|--------------------------------------0-0-0-0-0-0-0-0-3-3-3| 
|0-5-7-0-0-0-5-7-0-0-0-5-7-0-0-0-5-7-0-0-0-0-0-0-0-0-0-3-3-3|    
|0-5-7-0-0-0-5-7-0-0-0-5-7-0-0-0-5-7-0-0-0-0-0-0-0-0-0-3-3-3|

|-----------------------------------------|    
|-----------------------------------------|   
|-----------------------------------------|   
|-----------------------------------------| x2
|0-5-7-0-0-0-5-7-0-0-0-5-7-0-0-0-5-7-0-0-0|    
|0-5-7-0-0-0-5-7-0-0-0-5-7-0-0-0-5-7-0-0-0|    

Estribillo:
|---------------------------------------------| 
|4-4-4-4-4-4-4-4-7-7-7-8-8-8-8-8-8-8----------| 
|3-3-3-3-3-3-3-3-6-6-6-7-7-7-7-7-7-7-3-3-3-3-3|  
|1-1-1-1-1-1-1-1-4-4-4-5-5-5-5-5-5-5-3-3-3-3-3|x4  
|1-1-1-1-1-1-1-1-4-4-4-5-5-5-5-5-5-5-1-1-1-1-1|  
|1-1-1-1-1-1-1-1-4-4-4-5-5-5-5-5-5-5----------|  
 
Intermedio:
|---------------| |-----------------------------------------------------|
|---------------| |-----------------------------------------------------|
|---------------| |-----------------------------------------------------|
|---------------| |-----------------------------------------------------|x2
|0-0-0-0-0-0-0-0| |0-0-0---------0-0-0---------0-0-0---------0-0-0-0-0-0|
|0-0-0-0-0-0-0-0| |0-0-0-2-3-2-1-0-0-0-2-3-2-1-0-0-0-2-3-2-1-0-0-0-0-0-0|   

|-------------------------------------------------------| 
|-------------------------------------------------------| 
|-------------------------------------------------------| 
|-------------------------------------------------------|x2 
|--------0-0-0---------0-0-0---------0-0-0-0-0-0-0-0-0-0| 
|2-3-2-1-0-0-0-2-3-2-1-0-0-0-2-3-2-1-0-0-0-0-0-0-0-0-0-0| 



Estrofa Final:
|---------------------------------------|    
|---------------------------------------|   
|---------------------------------------|   
|---------------------------------------| 
|0-5-7-0-0-0-5-7-0-0-0-5-7-0-0-5-7-0-0-0|    
|0-5-7-0-0-0-5-7-0-0-0-5-7-0-0-5-7-0-0-0|    

|--------------------------------------0-0-0-0-0-0-0-0-3-3-3-3|    
|--------------------------------------3-3-3-3-3-3-3-3-6-6-6-5|   
|--------------------------------------2-2-2-2-2-2-2-2-5-5-5-5|   
|--------------------------------------0-0-0-0-0-0-0-0-3-3-3-3| 
|0-5-7-0-0-0-5-7-0-0-0-5-7-0-0-0-5-7-0-0-0-0-0-0-0-0-0-3-3-3-3|    
|0-5-7-0-0-0-5-7-0-0-0-5-7-0-0-0-5-7-0-0-0-0-0-0-0-0-0-3-3-3-3|

|-----------------------------------------|    
|-----------------------------------------|   
|-----------------------------------------|   
|-----------------------------------------| 
|0-5-7-0-0-0-5-7-0-0-0-5-7-0-0-0-5-7-0-0-0|    
|0-5-7-0-0-0-5-7-0-0-0-5-7-0-0-0-5-7-0-0-0|    

|--------------------0-0-0-0-0-0-0|    
|--------------------3-3-3-3-3-3-3|   
|3-3-3-3-3-3-3-5-5-5-2-2-2-2-2-2-2|   
|3-3-3-3-3-3-3-5-5-5-0-0-0-0-0-0-0|x3 
|1-1-1-1-1-1-1-3-3-3-0-0-0-0-0-0-0|    
|--------------------0-0-0-0-0-0-0|    

|------------------0|    
|------------------3|   
|3-3-3-3-3-3-3--5--2|   
|3-3-3-3-3-3-3--5--0| 
|1-1-1-1-1-1-1--3--0|    
|------------------0|    

Estructura:

Intro (0:00 - 0:27)
Estrofa (0:27 - 0:57)
Estribillo (0:57 - 1:23)
Intermedio (1:23 - 1:53)
Estribillo (1:53 - 2:19)
Estrofa Final (2.19 - 3:15)
            
Submit corrections

comments powered by Disqus
↑ Back to top | Carajo Tabs for Estilo De Vida. Lyrics for acoustic guitar and electric guitar. Tablatures and chords are parodies/interpretations of the original songs. You may use it for private study, scholarship, research or language learning purposes only