» » »

Carajo, El Que Ama Lo Que Hace Tabs (ver.1)

Artists:  A B C D E F G H I J K L M N O P Q R S T U V W X Y Z # 

El Que Ama Lo Que Hace Tabs (ver.1)

Carajo Tabs
 Rating:
4/5 (4 votes)
El Que Ama Lo Que Hace lessons Tabs too difficult? Try these video lessons and learn fast
1
                      |
   esta es la tablatura 100% posta.     
                    
  para dudas o preguntas les dejo mi mail :  

INTRO:

e|-------------------------------------------------------|
b|--11-11-11--------------9--9--9---11-11-11-------------|
g|--11-11-11---11-11-11---11-11-11--11-11-11---11-11-11--|
d|-------------------------------------------------------|
a|-------------------------------------------------------|
e|-------------------------------------------------------|

e|-------------------------------------------------------------------|
b|-9--9--9----11-11-11—--------------9--9—9-----11-11-11-12-11--9-11-|
g|-11-11-11---11-11-11---11-11-11---11-11-11----11-11-11-11-11-11-11-|
d|-------------------------------------------------------------------|
a|-------------------------------------------------------------------|
e|-------------------------------------------------------------------|

e|-------------------------------------------------------|
b|--11-11-11--------------9--9--9---11-11-11-------------|
g|--11-11-11---11-11-11---11-11-11--11-11-11---11-11-11--|
d|-------------------------------------------------------|
a|-------------------------------------------------------|
e|-------------------------------------------------------|

e|-------------------------------------------------------------------|
b|-9--9--9----11-11-11—--------------9--9—9-----11-11-11-12-11--9-11-|
g|-11-11-11---11-11-11---11-11-11---11-11-11----11-11-11-11-11-11-11-|
d|-------------------------------------------------------------------|
a|-------------------------------------------------------------------|
e|-------------------------------------------------------------------|

e|-------------------------------------------------------|
b|--11-11-11--------------9--9--9---11-11-11-------------|
g|--11-11-11---11-11-11---11-11-11--11-11-11---11-11-11--|
d|-------------------------------------------------------|
a|-------------------------------------------------------|
e|-------------------------------------------------------|

e|-------------------------------------------------------------------|
b|-9--9--9----11-11-11—11-11-12-11------9-----9--9--9--9--9--9-------|
g|-11-11-11---11-11-11-11-11-11-11------11----11-11-11-11-11-11------|
d|-------------------------------------------------------------------|
a|-------------------------------------------------------------------|
e|-------------------------------------------------------------------|




F#5*          C#5    B5         F#5*       C#5-B5
Hoy, tal vez,       empiece a comprender

          D#        C#          B5    C#
que nada se dara según mi voluntad, nooo!!

     F#5      C#5      B5     F#5
hoy puedo ver como pensaba ayer     C#-B5

               D#5         C#5           B5
y al fin y al cabo fue lo que tenia que ser!



G#5 G#5 G#5      A#5   G#5 F#5  D#5*
sera mejor es - pe - rar,

G#5 G#5 G#5      A#5   G#5 F#5  D#5*
sera mejor pre-  pa-  rarse mas,
G#5            A#  B5     C#5      FA#5
porque aprendi que no se trata de ganar!!


D#5      FA#9           B5          G#5     A#5
Se trata de saber jugar   y de aprender el juego,

D#5      FA#9            B5
sabiendo como hay que jugar

               C#5
disfrutaras del juego.




e|-------------------------------------------------------|
b|--11-11-11--------------9--9--9---11-11-11-------------|
g|--11-11-11---11-11-11---11-11-11--11-11-11---11-11-11--|
d|-------------------------------------------------------|
a|-------------------------------------------------------|
e|-------------------------------------------------------|

e|-------------------------------------------------------------------|
b|-9--9--9----11-11-11—--------------9--9—9-----11-11-11-12-11--9-11-|
g|-11-11-11---11-11-11---11-11-11---11-11-11----11-11-11-11-11-11-11-|
d|-------------------------------------------------------------------|
a|-------------------------------------------------------------------|
e|-------------------------------------------------------------------|

e|-------------------------------------------------------|
b|--11-11-11--------------9--9--9---11-11-11-------------|
g|--11-11-11---11-11-11---11-11-11--11-11-11---11-11-11--|
d|-------------------------------------------------------|
a|-------------------------------------------------------|
e|-------------------------------------------------------|

e|-------------------------------------------------------------------|
b|-9--9--9----11-11-11—11-11-12-11------9-----9--9--9--9--9--9-------|
g|-11-11-11---11-11-11-11-11-11-11------11----11-11-11-11-11-11------|
d|-------------------------------------------------------------------|
a|-------------------------------------------------------------------|
e|-------------------------------------------------------------------|



F#5        C#5- B5         FA#      C#5- B5
Hoy tal vez     aprenda a reconocer

            D#5          C#5
que estuve ciego, sordo, mudo

                  B5
y tan lejos de la verdad.

G#5 G#5 G#5      A#5   G#5 F#5  D#5*
sera mejor en- te- rrar,

G#5 G#5 G#5      A#5   G#5 F#5  D#5*
lo que esta muer-to  no molestar

G#5      A#5  B5           C#5       F#5
porque apren- di que no se trata de ganar.



D#5      FA#9           B5          G#5     A#5
Se trata de saber jugar   y de aprender el juego,

D#5      FA#9            B5
sabiendo como hay que jugar

         G#5       A#5
disfrutaras del juego.



D#5      FA#9           B5          G#5     A#5
Se trata de saber jugar   y de aprender el juego,

D#5      FA#9            B5
sabiendo como hay que jugar

           C#5
disfrutaraaaaaaaaas





SOLO: |        el  9b11  Significa que tienen |
SOLO: |que estirar el en el traste 9 haste que| 
SOLO: |suene como el 11                       | 

E|------6-9-----------------------------------|
B|-9b11-----9b11----9b11-9-7------------------|
G|--------------------------------------------|
D|--------------------------------------------|
A|--------------------------------------------|
E|--------------------------------------------|

E|------6-9-----------------------------------|
B|-9b11-----9b11----9b11-9-7--6/7-6----6h7p6--|
G|----------------------------------6--------6|
D|--------------------------------------------|
A|--------------------------------------------|
E|--------------------------------------------|

E|-------------------8/9-9--8/9-9--8/9--------|
B|-----7---------9---8/9-9--8/9-9--8/9--------|
G|-3/4-------4/6------------------------11~---|
D|--------------------------------------------|
A|--------------------------------------------|
E|--------------------------------------------|





INTERLUDIO DE BAJO




F#5        C#5- B5         FA#      C#5- B5
Hoy tal vez     aprenda a reconocer

(PICKSLIDE)        
           D#5          C#5
que estuve ciego, sordo, mudo

                  B5
y tan lejos de la verdad.

G#5 G#5 G#5      A#5   G#5 F#5  D#5*
sera mejor en- te- rrar,

G#5 G#5 G#5      A#5   G#5 F#5  D#5*
lo que esta muer-to  no molestar

G#5      A#5  B5           C#5       F#9
porque apren- di que no se trata de ganar.



D#5      FA#9           B5          G#5     A#5
Se trata de saber jugar   y de aprender el juego,

D#5      FA#9            B5
sabiendo como hay que jugar

         G#5       A#5
disfrutaras del juego.


D#5      FA#9           B5          G#5     A#5
Se trata de saber jugar   y de aprender el juego,

D#5      FA#9            B5
sabiendo como hay que jugar

        C#
disfrutaras.



OUTRO:

e|-------------------------------------------------------|
b|--11-11-11--------------9--9--9---11-11-11-------------|
g|--11-11-11---11-11-11---11-11-11--11-11-11---11-11-11--|
d|-------------------------------------------------------|
a|-------------------------------------------------------|
e|-------------------------------------------------------|

e|-------------------------------------------------------------------|
b|-9--9--9----11-11-11—--------------9--9—9-----11-11-11-12-11--9-11-|
g|-11-11-11---11-11-11---11-11-11---11-11-11----11-11-11-11-11-11-11-|
d|-------------------------------------------------------------------|
a|-------------------------------------------------------------------|
e|-------------------------------------------------------------------|

e|-------------------------------------------------------|
b|--11-11-11--------------9--9--9---11-11-11-------------|
g|--11-11-11---11-11-11---11-11-11--11-11-11---11-11-11--|
d|-------------------------------------------------------|
a|-------------------------------------------------------|
e|-------------------------------------------------------|

e|--------------------------------------------9--9--9--9--9--9----|
b|-9--9--9----11-11-11—11-11-12-11------9-----9--9--9--9--9--9----|
g|-11-11-11---11-11-11-11-11-11-11------11------------------------|
d|----------------------------------------------------------------|
a|----------------------------------------------------------------|
e|----------------------------------------------------------------|

e|-8/9-9--8/9-9--8/9----------|
b|-8/9-9--8/9-9--8/9----------|
g|----------------------------|
d|---------------------4~-----|
a|---------------------4~-----|
e|---------------------2~-----| 


®eXtreS®
            
Submit corrections

comments powered by Disqus
↑ Back to top | Carajo Tabs for El Que Ama Lo Que Hace. Lyrics for acoustic guitar and electric guitar. 1 Tablatures and chords are parodies/interpretations of the original songs. You may use it for private study, scholarship, research or language learning purposes only