» » »

Carajo, El Error Tabs (ver.1)

Artists:  A B C D E F G H I J K L M N O P Q R S T U V W X Y Z # 

El Error Tabs (ver.1)

Carajo Tabs
Rating:
0/5 (0 votes)
El Error lessons Tabs too difficult? Try these video lessons and learn fast
                 -------------------------------------------------------------------------------
-------------------------------------------------------------------------------


 [Riff]
Bb|-----------------------------------|----------------------------------------|
 G|-----------------------------------|----------------------------------------|
Eb|-----------------0-------------0---|-----------------0---------------0------|
Bb|-----2-2-2-5-5-4---2-2-2-5-5-4-----|---5-5-5-7-7-5-5---5-5-5-9-9-7-7--------|
 F|-----2-2-2---------2-2-2-----------|---5-5-5-----------5-5-5----------------|
Bb|-----2-2-2---------2-2-2-----------|---5-5-5-----------5-5-5----------------|


 [Estrofa 1]
Bb|-------------------|-------------------|------------------------------------|
 G|-------------------|-------------------|------------------------------------|
Eb|-------------------|-----------(7)-----|---------------0-------------0------|
Bb|---2-2-2---2-2-2---|---5-5-5---(7)-----|---2-2-2-5-5-4---2-2-2-5-5-4--------|
 F|---2-2-2---2-2-2---|---5-5-5-----------|---2-2-2---------2-2-2--------------|
Bb|---2-2-2---2-2-2---|---5-5-5-----------|---2-2-2---------2-2-2--------------|
    "Esclava del error..."                   "Pariendo su ansiedad..."

Bb|-------------------------------------|--------------------------------------|
 G|-------------------------------------|--------------------------------------|
Eb|-------------------0---------------0-|---------------0-------------0--------|
Bb|-----5-5-5-7-7-5-5---5-5-5-9-9-7-7---|---2-2-2-5-5-4---2-2-2-5-5-4----------|
 F|-----5-5-5-----------5-5-5-----------|---2-2-2---------2-2-2----------------|
Bb|-----5-5-5-----------5-5-5-----------|---2-2-2---------2-2-2----------------|


 [Puente]
Bb|--------------------------------|
 G|--------------------------------|
Eb|--4-4-4-4-7-7-7-7---------------|
Bb|--4-4-4-4-7-7-7-7---------------|
 F|-2-2-2-2-5-5-5-5----------------|
Bb|--------------------------------|
    "Donde se esconde la verdad..."


 [Coro]
Bb|--------0------------------|---------------|---------------------|----------|
G|-----8---------------------|---------------|-----------------0---|----------|
Eb|--------9------------------|---------------|---------------3-----| repite --|
Bb|--------9------5-------9---|---9--12--12---|---3-3-3-------------|-- [riff] |
F|-----7---------5-----------|---9------10---|---3-3-3-------------|----------|
Bb|---------------5-----------|---9------10---|---3-3-3-------------|----------|
    "En cada falla..."


 [Estrofa]
Bb|-------------------------|-------------------------|
 G|-------------------------|-------------------------|
Eb|-------------------------|-------------------------|
Bb|--2-2-2---2---2-2-2---2--|--5-5-5---5---5-5-5---5--|
 F|--2-2-2---2---2-2-2---2--|--5-5-5---5---5-5-5---5--|
Bb|--2-2-2---2---2-2-2---2--|--5-5-5---5---5-5-5---5--|
    "Quien nunca morirĂ¡..."


 Repite [Riff] y [Puente]...

 Repite [Coro]...


Bb|-----------------------------------|----------------------0-------|
 G|-----------------------------------|-------------------10--10-----|
Eb|-----------------------------------|--9-/-/-/-/-/-/-----------0---|
Bb|--3-3---3-3---3-3---3-3---3-3---3--|--9-/-/-/-/-/-/-9-9---------9-|
 F|--3-3---3-3---3-3---3-3---3-3---3--|--7-/-/-/-/-/-/1010---------9-|
Bb|--3-3---3-3---3-3---3-3---3-3---3--|------------------------------|
 
Bb|-----------------------0-------|--9^^^9-12^^^12-|--5^^^5-7^^^7----|
 G|---------------------2---2-----|--7^^^7-10^^^10-|--3^^^3-5^^^5----|
Eb|---------------------------0---|--9^^^9-12^^^12-|--5^^^5-7^^^7----|
Bb|--5-/-/-/-/-/-/----2-----------|----------------|-----------------|
 F|--3-/-/-/-/-/-/---0------------|----------------|-----------------|
Bb|-------------------------------|----------------|-----------------|
            
 Repite [Coro] 2 veces...
                                                     
Bb|-------------------------|-------------------|-----------------------|
 G|-------------------------|-------------------|-----------------------|
Eb|-------------------------|-------------------|-----------------------|
Bb|--2-2---2-2---2-2---2-2--|--2-2---2-2---2-2--|-----------------------|
 F|--2-2---2-2---2-2---2-2--|--2-2---2-2---2-2--|-----22020------22020--|
Bb|--2-2---2-2---2-2---2-2--|--2-2---2-2---2-2--|--32022020---32022020--|


Bb|----------------------0-------|-----------------------0-------|
 G|-------------------10--10-----|---------------------2---2-----|
Eb|--9-/-/-/-/-/-/-----------0---|---------------------------0---|
Bb|--9-/-/-/-/-/-/-9-9---------9-|--5-/-/-/-/-/-/----2-----------|
 F|--7-/-/-/-/-/-/1010---------9-|--3-/-/-/-/-/-/---0------------|
Bb|------------------------------|-------------------------------|
            

comments powered by Disqus
↑ Back to top | Carajo Tabs for El Error. Lyrics for acoustic guitar and electric guitar. Tablatures and chords are parodies/interpretations of the original songs. You may use it for private study, scholarship, research or language learning purposes only