» » »

Carajo, Como Deberia Ser Tabs (ver.1)

Artists:  A B C D E F G H I J K L M N O P Q R S T U V W X Y Z # 

Como Deberia Ser Tabs (ver.1)

Carajo Tabs
 Rating:
4/5 (4 votes)
Como Deberia Ser lessons Tabs too difficult? Try these video lessons and learn fast
1
                -------------------------------------------------------------------------------
                             Carajo – Como Debería Ser
-------------------------------------------------------------------------------

Afinación: A# F A# D# G C

Intro
|--------------------------------------------------|
|--------------------------------------------------|
|--------------------------------------------------|
|--------------------------------------------------|
|0-2-2-x-x-0-2-2-x-x-0-2-2-x-x-5-7-5----------5-7-5|
|0-2-2-x-x-0-2-2-x-x-0-2-2-x-x-5-7-5--2\14/2--5-7-5|
                                      x  x x
Riff 1
|------------------------------------|   |--------------------------|
|------------------------------------|   |--------------------------|
|------------------------------------|   |--------------------------|
|------------------------------------|x3 |--------------------------|
|0-2-2-x-x-0-2-2-x-x-0-2-2-x-x-5-7-5-|   |0-2-2--0-2-2--0-2-2--5-7-5|   
|0-2-2-x-x-0-2-2-x-x-0-2-2-x-x-5-7-5-|   |0-2-2--0-2-2--0-2-2--5-7-5|
                                         
Estrofa
|---------------------------------------------------|
|---------------------------------------------------|
|---------------------------------------------------|
|------5-----------4--------------------------------|x2
|0-2-2---2-2-0-2-2---2-2-0-2-2-3-2-2-0-2-2-1-1-1-1-2|
|0-2-2---2-2-0-2-2---2-2-0-2-2---2-2-0-2-2----------|
 x x x   x x x x x   x x x x x   x x x x x 

|--------------------------------------------------|
|--------------------------------------------------|
|--------------------------------------------------|
|--------5----------4------------------------------|
|0-2-2-2----0-2-2-2----0-2-2-2-3--0-2-2-2-1-1-1-1-2|
|0-2-2-2----0-2-2-2----0-2-2-2----0-2-2-2----------|

|-----------------------------------------------------|
|-----------------------------------------------------|
|-----------------------------------------------------|
|--------5-----------4--------------------------------| 
|0-2-2-2---2-2-0-2-2---2-2-0-2-2-3-2-2-0-2-2-1-1-1-1-2|
|0-2-2-2---2-2-0-2-2---2-2-0-2-2---2-2-0-2-2----------|

Estibillo
|-------------------------------------------------------------------------------|
|-------------------------------------------------------------------------------|
|--------------------7-7-7-7-7-2-2-3-3-3----------------------------------------|
|2-2-2-2-2-5-5-5-5-5-7-7-7-7-7-2-2-3-3-3-2-2-2-2-2-5-5-5-5-5-4-4-4-4-4-3-3-3-3-3|
|2-2-2-2-2-5-5-5-5-5-5-5-5-5-5-0-0-1-1-1-2-2-2-2-2-5-5-5-5-5-4-4-4-4-4-3-3-3-3-3|
|2-2-2-2-2-5-5-5-5-5---------------------2-2-2-2-2-5-5-5-5-5-4-4-4-4-4-3-3-3-3-3|

Riff 1-2
|-----------------------------------|   |------------------|
|-----------------------------------|   |------------------|
|-----------------------------------|   |------------------|
|-----------------------------------|X3 |------------------|
|0-2-2-X-X-0-2-2-X-X-0-2-2-X-X-5-7-5|   |--1h-2--1h-2--1h-2|   
|0-2-2-X-X-0-2-2-X-X-0-2-2-X-X-5-7-5|   |--1h-2--1h-2--1h-2|


Puente
|-----------------------------------------------------------------------|
|5-5-5-5-5-5-5-5-7-7-7-7-7-7-7-7-8-8-8-8-8-8-8-8-12-12-12-12-12-12-12-12|
|x-x-x-x-x-x-x-x-x-x-x-x-x-x-x-x-x-x-x-x-x-x-x-x--x--x--x--x--x--x--x--x|
|2-2-2-2-2-2-2-2-4-4-4-4-4-4-4-4-5-5-5-5-5-5-5-5--9--9--9--9--9--9--9--9|
|-----------------------------------------------------------------------|
|-----------------------------------------------------------------------|

|---------------------------------------|
|5-5-5-5-5-5-5-5--7-7-7-7-7-7-7-7--8----|
|x-x-x-x-x-x-x-x--x-x-x-x-x-x-x-x--x----|
|2-2-2-2-2-2-2-2--4-4-4-4-4-4-4-4--5----|
|--------------------------------------2|
|--------------------------------------2|

Intermedio
|-----------------|   |------------------------------------------|
|-----------------|   |------------------------------------------|
|-----------------|   |------------------------------------------|
|-----------------|X4 |------------------------------------------|x3
|0-2-2-x-x-0-2-2--|   |0-2-2-x-x-0-2-2-x-0-2-2-------------------|
|0-2-2-x-x-0-2-2--|   |0-2-2-x-x-0-2-2-x-0-2-2--5-5-4-4-3-3-0-2-2|
                                                x x x x x x x x x

|------------------------------------------|   |-----------------------|
|------------------------------------------|   |-----------------------|
|------------------------------------------|   |-----------------------|
|------------------------------------------|x8 |-----------------------| 
|0-2-2-x-x-0-2-2-x-0-2-2-------------------|   |-----------------------|
|0-2-2-x-x-0-2-2-x-0-2-2--5-5-4-4-3-3-0-2-2|   |0-2-0-2-0-2-0-2-3-2-5-3|


Estribillo limpio
|--------------------------------------------------------------------------------|
|5-5-5-5-5-8-8-8-8-8----------------------5-5-5-5-5-8-8-8-8-8-7-7-7-7-7-6-6-6-6-6|
|4-4-4-4-4-7-7-7-7-7-7-7-7-7-7-2-2-3-3-3--4-4-4-4-4-7-7-7-7-7-6-6-6-6-6-5-5-5-5-5|
|2-2-2-2-2-5-5-5-5-5-7-7-7-7-7-2-2-3-3-3--2-2-2-2-2-5-5-5-5-5-4-4-4-4-4-3-3-3-3-3|
|2-2-2-2-2-5-5-5-5-5-5-5-5-5-5-0-0-1-1-1--2-2-2-2-2-5-5-5-5-5-4-4-4-4-4-3-3-3-3-3|
|2-2-2-2-2-5-5-5-5-5----------------------2-2-2-2-2-5-5-5-5-5-4-4-4-4-4-3-3-3-3-3|

Puente 2
|-----------------------------------------------------------------------|
|5-5-5-5-5-5-5-5-7-7-7-7-7-7-7-7-8-8-8-8-8-8-8-8-12-12-12-12-12-12-12-12|
|x-x-x-x-x-x-x-x-x-x-x-x-x-x-x-x-x-x-x-x-x-x-x-x-x--x--x--x--x--x--x--x-|
|2-2-2-2-2-2-2-2-4-4-4-4-4-4-4-4-5-5-5-5-5-5-5-5-9--9--9--9--9--9--9--9-|x3
|-----------------------------------------------------------------------|
|-----------------------------------------------------------------------|

|--------------------------------|
|5-5-5-5-5-5-5-5--7-7-7-7-7-7-7-7|
|x-x-x-x-x-x-x-x--x-x-x-x-x-x-x-x|
|2-2-2-2-2-2-2-2--4-4-4-4-4-4-4-4| 
|--------------------------------|
|--------------------------------|

Outro
|-----------------------------------|   |-------------------------------|
|-----------------------------------|   |-------------------------------|
|-----------------------------------|   |-------------------------------|
|-----------------------------------|X2 |-------------------------------|
|0-2-2-X-X-0-2-2-X-X-0-2-2-X-X-5-7-5|   |------------------------5-7-5-2|   
|0-2-2-X-X-0-2-2-X-X-0-2-2-X-X-5-7-5|   |0-2-0-2-0-2-0-3-5-2-0-2-5-7-5-2|

Estructura:

Intro (0:00 - 0:07)
Riff 1 (0:07 - 0:20)
Estrofa (0:20 - 0:47)
Riff 1 (0:47 - 1:00)
Estribillo (1:00 - 1:13)
Estrofa (1:13 - 1:40)
Riff 1-2 (1:40 - 1:54)
Estrofa (1:54 - 2:08)
Puente (2:08 - 2:22)
Intermedio (2:28 - 3:08)
Estribillo limpio (3:08 - 3:22)
Estibillo (3:22 - 3:35)
Puente 2 (3:35 - 3.59)
Outro (3:59 - 4:14)


| /  slide up
| \  slide down
| h  hammer-on
| x  Mute note
===============================================================================
            
Submit corrections

comments powered by Disqus
↑ Back to top | Carajo Tabs for Como Deberia Ser. Lyrics for acoustic guitar and electric guitar. 1 Tablatures and chords are parodies/interpretations of the original songs. You may use it for private study, scholarship, research or language learning purposes only