» » »

Chico Granada Tabs (ver.1)

Artists:  A B C D E F G H I J K L M N O P Q R S T U V W X Y Z # 

Chico Granada Tabs (ver.1)

Carajo
Rating:
5/5 (1 vote)

Hard to play? Try these video lessons and learn fast.
                Banda: Carajo
Tema: Chico Granada
Año: 2007

Bueno, esta es mi primer trascripción.
Espero que les guste!

Tuning: CGCFAD


Intro: Con Delay...


|----------------------|-------------------|-------------------|------------|
|----------10-10-10-10-|-------------------|-------------------|--------8---|
|----------------------|--------9-9-9h10p9-|--------9-9-9h10p9-|----7-------|
|--0-0-0-0-------------|--0-0-0------------|--0-0-0------------|--0---0-----|
|----------------------|-------------------|-------------------|------------|
|----------------------|-------------------|-------------------|------------|
   . . . .                . . .               . . .               .   .



|----------------------|-------------------|-----------------|
|----------10-10-10-10-|-------------------|-----------------|
|----------------------|--------9-9-9h10p9-|--------9-9-9-9--|
|--0-0-0-0-------------|--0-0-0------------|--0-0-0----------|
|----------------------|-------------------|-----------------|
|----------------------|-------------------|-----------------|
   . . . .                . . .               . . .      



Estribillo: Con Distorsión Pesada!


|------------|  |---------------------------|--------------------| x2
|------------|  |---------------------------|--------------------|
|------------|  |---------------------------|--------------------|
|--5555/777--|  |--000-12121212---000-3333--|--8888888-5555/777--|
|--5555/777--|  |--000-12121212---000-3333--|--8888888-5555/777--|
|--5555/777--|  |--000-12121212---000-3333--|--8888888-5555/777--|


Intro (primera parte) x3
Intro (segunda parte, a lo último) x1

Estribillo: x2


Riff:

|-------------------|--------------------|
|-------------------|--------------------|
|-------------------|--------------------|
|----3p2------------|----3p2-------------|
|----------3---3h5--|----------3h5------0|
|--0-----0---0------|--0-----0-----3h5--0|
   .     .   .         .     .


Intro (primera parte) x3
Intro (segunda parte) x1

Estribillo: x4

Riff: x4


Bueno, este sería el Solo de este gran tema.
Lo malo es que sólo se la primera parte, asi que si alguien logra sacarlo
completamente, le pido por favor que me lo mande a mi mail, que esta al final del tab.


Solo:

   C                    D#            F                   C
|---------------------------------------------------------------------------|
|---------------------------------------------10----------------------------|
|--/10-9-7~-5-5/7-7/9-9/10~-9-(10)-10/12~---12--12-10-9-9/10-9\7-7\5--5\3-3-|
|---------------------------------------------------------------------------|
|---------------------------------------------------------------------------|
|---------------------------------------------------------------------------|

     D#              F
|------------------------|
|------------------------|
|--2-2h3p2h3p2h3---------| 
|----------------3-3/5~--|
|------------------------|
|------------------------|


Bridge:

|----------------------|-----------------------|
|----------------------|-----------------------|
|----------------------|-----------------------|
|--00000000-33333/555--|--00000000--8888-8888--|
|--00000000-33333/555--|--00000000--8888-5555--|
|--00000000-33333/555--|--00000000--8888-5555--|


|----------------------|-------------------------|
|----------------------|-------------------------|
|----------------------|-------------------------|
|--00000000-33333/555--|--00000000--3333--11-11--|
|--00000000-33333/555--|--00000000--3333--11-11--|
|--00000000-33333/555--|--00000000--3333--11-11--|


Estribo: x4

Riff: x4 (dejando sonar el C)


FIN


Bueno, espero que les haya gustado!
Y espero recibir lo pedido con anterioridad!!!


Me voy despidiendo!

Adioz!



Pd: Soy de Argentina, Capital Federal. Busco banda o musicos para armar
algo nuevo. Espero propuestas!

Chau!
            
Hard to play? Try these video lessons and learn fast. | Correct




comments powered by Disqus
↑ Back to top | Tablatures and chords are parodies/interpretations of the original songs. You may use it for private study, scholarship, research or language learning purposes only