» » »

Captain Everything, Watford Pride Bass tabs (ver.1)

Artists:  A B C D E F G H I J K L M N O P Q R S T U V W X Y Z # 

Watford Pride Bass tabs (ver.1)

Captain Everything Tabs
Rating:
0/5 (0 votes)
Watford Pride lessons Tabs too difficult? Try these video lessons and learn fast
                Captain Everything
Watford Pride!

Chorus 1

G:-------------|----------|-------------|------------|
D:-------------|----------|-------------|------------|
A:-2>----2>----|-2>-------|-2>----2>----|-2>-2---2---| x1
E:----2>----0>-|----0-2-0-|----2>----0>-|------2---2-|

Verse

G:-------------|-------------|
D:-------------|-------------|
A:----6>-7>----|----6>-7>-9>-| x1
E:-4>-------7>-|-4>----------|

Chorus 2

G:-------------|----------|
D:-------------|----------|
A:-2>----2>----|-2>-2---2-| x1
E:----2>----0>-|------2---|

La lala lala lala, la lala lala, la lala lala lala, la lala lala

G:---|
D:---|
A:-2-| OI!!
E:---|

Short and sweet, just how punk should be :)
            
Submit corrections

comments powered by Disqus
↑ Back to top | Captain Everything Bass for Watford Pride. Lyrics for acoustic guitar and electric guitar. Tablatures and chords are parodies/interpretations of the original songs. You may use it for private study, scholarship, research or language learning purposes only