» » »

Picture Tabs (ver.2)

Artists:  A B C D E F G H I J K L M N O P Q R S T U V W X Y Z # 

Picture Tabs (ver.2)

Captain Everything
Rating:
0/5 (0 votes)

Hard to play? Try these video lessons and learn fast.
                
Intro
e|------------------------------------------------------|
B|-7-7-------------9-9-10-10-7-7------------------------|
G|-----7-----9-9-9---------------7-----9-9-9-7-7-9-7----| 
D|-------9-9-----------------------9-9------------------|
A|------------------------------------------------------|
E|------------------------------------------------------|

e|------------------------------------------------------|
B|-7-7-------------9--10--11--12—---13----14---15bend---|
G|-----7-----9-9-9--------------------------------------| 
D|-------9-9--------------------------------------------|
A|------------------------------------------------------|
E|------------------------------------------------------|

Verse (picture of you…)
e|------------------------------------------------------|
B|------------------------------------------------------|
G|--4-4-4-4---------------------------------------------| 
D|--4-4-4-4----4-4----2-2-------------------------------|
A|--2-2—2-2----4-4----2-2-------------------------------|
E|-------------2-2----0-0-------------------------------|

Bridge (now I’m missing out…)
e|-------------------------------------------|
B|-------------------------------------------|
G|--------------------------------4444444----| 
D|--77777777--44444444--22222222--4444444----|
A|--77777777--44444444--22222222--2222222----|
E|--55555555--22222222--00000000-------------|
   
e|-------------------------------------------|
B|-------------------------------------------|
G|-------------------------------------------| 
D|--77777777--44444444--2222222222222222-----|
A|--77777777--44444444--2222222222222222-----|
E|--55555555--22222222--0000000000000000-----|

e|-------------------------------------------|
B|-------------------------------------------|
G|--------------------------------4444444----| 
D|--77777777--44444444--22222222--4444444----|
A|--77777777--44444444--22222222--2222222----|
E|--55555555--22222222--00000000-------------|
  Pm--------------------------------------|  

e|------------------------------------------------------|
B|------------------------------------------------------|
G|------------------------------------------------------| 
D|--77777777--44444444--22222222222222222222222222222222|
A|--77777777--44444444--22222222222222222222222222222222|
E|--55555555--22222222--00000000000000000000000000000000|
  Pm----------------------------------------------------|

Chorus x2 (don’t wait for me…)
e|------------------------------------------------|
B|------------------------------------------------|
G|-44444444---------------------------------------| 
D|-44444444--22222222--44444444--22222222---------|
A|-22222222--22222222--44444444--22222222---------|
E|-----------00000000--22222222--00000000---------|

e|------------------------------------------------------|
B|------------------------------------------------------|
G|-44444444-888888888-33333333333-44444444444-222222222-| 
D|-44444444-888888888-33333333333-44444444444-222222222-|
A|-22222222-666666666-11111111111—22222222222-000000000-|
E|------------------------------------------------------|

Verse
Bridge
Chorus
Verse (just bass after 4 times)
Bridge (just bass to start)
Chorus

Ending x4

e|---------------------------------------------|  
B|---------------------------------------------|
G|--33333333--8888—-2222--33333333--8888--2222-|
D|--33333333--8888—-2222--33333333--8888--2222-| 
A|-—11111111--6666—-0000--11111111--6666—-0000-|
E|---------------------------------------------|

e|------------------------------------------------|  
B|------------------------------------------------|
G|--33333333--8888—-2222--33333333--8888—-3/4/3--2|
D|--33333333--8888—-2222--33333333--8888—-3/4/3--2| 
A|-—11111111--6666—-0000--11111111--6666—-1/2/1--0|
E|------------------------------------------------|
            
Hard to play? Try these video lessons and learn fast. | Correct




comments powered by Disqus
↑ Back to top | Tablatures and chords are parodies/interpretations of the original songs. You may use it for private study, scholarship, research or language learning purposes only