» » »

Captain Everything, My Girlfriends Dad Runs A Sweatshopcapt Bass tabs (ver.1)

Artists:  A B C D E F G H I J K L M N O P Q R S T U V W X Y Z # 

My Girlfriends Dad Runs A Sweatshopcapt Bass tabs (ver.1)

Captain Everything Tabs
Rating:
0/5 (0 votes)
My Girlfriends Dad Runs A Sweatshopcapt lessons Tabs too difficult? Try these video lessons and learn fast
                Captain Everything
My Girlfriend's Dad Runs A Sweatshop

 = strum however many times
~ = let note ring

Intro/verse

G:-----|-----|---|
D:-----|-----|---|
A:-2-2-|-2-2-|-2-|
E:-----|-----|---|

G:------------------------|------------|
D:------------------------|------------|
A:-----7>--2>-------------|-2>--0>-----|
E:-2>----------4>--2>--0>-|---------0>-|

Pre-chorus (As I sit at home and dream...)

G:------------------------|
D:------------------------|
A:---------2>-------------|
E:-2>--0>------0>--2>--0>-|

Chorus (While I'm ruining my chance to be with you...)

G:----------------------|
D:----------------------|
A:-2>----------2>-------|
E:-----2>--0>------2--0-|

G:--------------------------|
D:--------------------------|
A:-0>------2>--0>--4>--7--7-|
E:-----0>-------------------|

Intro/verse x 1
Pre-chorus x 1
Chorus x 1

Bridge

G:----|
D:----|
A:-2~-| x 8
E:----|

G:--------------------|--------------------|--------------------|--------------------|
D:--------------------|--------------------|--------------------|--------------------|
A:-2--2-2-2-2-1-------|-2--2-2-2-2---------|-2--2-2-2-2-1-------|------------------2-|
E:--------------4-4-4-|------------4-2-2-2-|--------------4-4-4-|-2--2-2-2-2-0-0-0---|

G:--------------------|--------------------|--------------------|--------------------|
D:--------------------|--------------------|--------------------|--------------------|
A:-2--2-2-2-2-1-------|-2--2-2-2-2---------|-2--2-2-2-2-1-------|------------------2-|
E:--------------4-4-4-|------------4-2-2-2-|--------------4-4-4-|-2--2-2-2-2-0-0-0---|

G:-----|-----|---|
D:-----|-----|---|
A:-2-2-|-2-2-|-2-|
E:-----|-----|---|

Verse (without first bit) x 1
Pre-chorus x 1

Last chorus

G:------------------------|
D:------------------------|
A:-2>----------2>---------| x3
E:-----2>--0>------2>--0>-|

G:----------|---|
D:----------|---|
A:-2>-------|---|
E:-----2--0-|-2-|

Credit to Captain Everything for kicking so much ass. These guys rule!! I plan on tabbing more songs off 'Learning To Play With...' so watch this space :)
            

comments powered by Disqus
↑ Back to top | Captain Everything Bass for My Girlfriends Dad Runs A Sweatshopcapt. Lyrics for acoustic guitar and electric guitar. Tablatures and chords are parodies/interpretations of the original songs. You may use it for private study, scholarship, research or language learning purposes only