» » »

Captain Everything, Just For Paul Bass tabs (ver.1)

Artists:  A B C D E F G H I J K L M N O P Q R S T U V W X Y Z # 

Just For Paul Bass tabs (ver.1)

Captain Everything Tabs
Rating:
0/5 (0 votes)
Just For Paul lessons Tabs too difficult? Try these video lessons and learn fast
                Captain Everything

Intro

G:------------------|-----------------|------------------|
D:---------7--------|---------5-------|---------7--------|
A:---7-8-7---10-8-7-|-5-7-8-7---8-7-5-|---7-8-7---10-8-7-|
E:-8----------------|-----------------|-8----------------|

G:-----------|
D:---------5-|
A:-5-7-8-7---|
E:-----------|

Verse

G:-------------|------------|
D:-------------|------------|
A:-3>----5>----|-3>----5>---| x2
E:----5>----3>-|----5>----3-|

G:------------------|-----------------|
D:---------7--------|---------5-------|
A:---7-8-7---10-8-7-|-5-7-8-7---8-7-5-| x4
E:-8----------------|-----------------|

Chorus

G:----------|---------------|----------|------|
D:----------|---------------|----------|------|
A:----------|---------------|----------|------| x1
E:-0>-2>-7>-|-0>-2>-7-5-4-2-|-0>-2>-7>-|-0>-2-|

Interlude 

G:---------------------------------|------------|
D:---------------------------------|------------|
A:-3-3-3-3---------5-5-5-5---------|-3-----5----| x1
E:---------5-5-5-5---------3-3-3-3-|----5-----3-|

Verse x1
Chorus x1
Interlude x1

Bridge

G:-------------|-------------|-------------|------------|
D:-------------|-------------|-------------|------------|
A:-3>----5>----|-3>----------|-3>----5>----|-3>---------|
E:----5>----3>-|----3>-0>-2>-|----5>----3>-|----3>-0>-2-|

G:-------------|-------------|-------------|-------------|
D:-------------|-------------|-------------|-------------|
A:-3>----5>----|-3>----------|-3>----5>----|-3>----------|
E:----5>----3>-|----3>-0>-2>-|----5>----3>-|----3>-0>-2>-|

G:------------------|-----------------|----------|
D:---------7--------|---------5-------|----------|
A:---7-8-7---10-8-7-|-5-7-8-7---8-7-5-|----7~-6~-|
E:-8----------------|-----------------|-8~-------|

Chorus x2

Outro

G:---------------------------------|---------------------------|
D:---------------------------------|---------------------------|
A:-3-3-3-3---------5-5-5-5---------|-3-3-3-3---------5-5-5-5---| x1
E:---------5-5-5-5---------3-3-3-3-|---------5-5-5-5---------3-|

G:-------------|-------------|-------------|---|
D:-------------|-------------|-------------|---|
A:-3>----5>----|-3>----5>----|-3>----5>----|-3-|
E:----5>----3>-|----5>----3>-|----5>----3>-|---|

G:-------------|-------------|-------------|----|----|
D:-------------|-------------|-------------|----|----|
A:-3>----5>----|-3>----5>----|-3>----5>----|-3~-|-3~-|
E:----5>----3>-|----5>----3>-|----5>----3>-|----|----|
            
Submit corrections

comments powered by Disqus
↑ Back to top | Captain Everything Bass for Just For Paul. Lyrics for acoustic guitar and electric guitar. Tablatures and chords are parodies/interpretations of the original songs. You may use it for private study, scholarship, research or language learning purposes only