» » »

Id Rather Have A Bottle In Front Of Me Than A Full Frontal Labotomy Tabs (ver.1)

Artists:  A B C D E F G H I J K L M N O P Q R S T U V W X Y Z # 

Id Rather Have A Bottle In Front Of Me Than A Full Frontal Labotomy Tabs (ver.1)

Captain Everything
Rating:
0/5 (0 votes)

Hard to play? Try these video lessons and learn fast.
                -------------------------------------------------------------------------------
          Captain Everything - I'd Rather Have a Bottle in Front Of Me 
                               Than A Full Frontal Labotomy
-------------------------------------------------------------------------------

Tuning:EADGBe

intro
e|-------------------------------------------------|
B|-------------------------------------------------|
G|--4~---------------------------------------------|
D|--4~--------2~---4-------------------------------|
A|--2~--------2~---4-------------------------------|
E|------------0~---2-------------------------------|

verse
e|-------------------------------------------------|
B|-------------------------------------------------|
G|--444-----------------444------------------------|
D|--444--666--222--444--444--666--222--444----x2---|
A|--222--666--222--444--222--666--222--444---------|
E|-------444--000--222-------444--000--222---------|

chorus
e|----------------------------------------------------------------------------|
B|-------------------------------------------------------8889p8---------------|
G|--4--3-----------------------4--3------------------------------|..pm...|----|
D|--4--3--6--222--444----x3----4--3--6--222222--444444------------2-2-2-4-----|
A|--2--1--6--222--444----------2--1--6--222222--444444------------2-2-2-4-----|
E|--------4--000--222----------------4--000000--222222------------0-0-0-2-----|

slow bit
e|-------------------------------------|
B|-|...............pm..............|---|
G|--444444-----------------------------|
D|--444444---666666--222222--444444----|
A|--222111---666666--222222--444444----|
E|-----------444444--000000--222222----|

solo
e|------------------------------------------------------------|
B|------------------------------------------------------------|
G|--4~-----|...pm...|---0x---11b13r--11-9-8--9-8-6--6-8-6-4---|
D|--4~------222222-4------------------------------------------|
A|--2~------222222-4------------------------------------------|
E|----------000000-2------------------------------------------|

e|------------------------------------------------------------|
B|------------------------------------------------------------|
G|--12b-12b-11~--11-9-8--9-8-6--6-8-6-4-----------------------|
D|------------------------------------------------------------|
A|------------------------------------------------------------|
E|------------------------------------------------------------|

e|---------------------------------------------------------------------------|
B|---------------------------------------------------------------------------|
G|--11b13r--16b-16b18r--11-9-8-4---------------------------------------------|
D|---------------------------------------------------------------------------|
A|---------------------------------------------------------------------------|
E|---------------------------------------------------------------------------|

e|---------------------------------------------------------------------------|
B|---------------------------------------------------------------------------|
G|--11b13r--11-9-8--8-9-8-6--6-8-6-4-----------------------------------------|
D|---------------------------------------------------------------------------|
A|---------------------------------------------------------------------------|
E|---------------------------------------------------------------------------|



| /  slide up
| \  slide down
| pm palm mute
| b  bend
| r  release
| h  hammer-on
| p  pull-off
| ~  let ring
| +  harmonic
| x  Mute note
===============================================================================
            
Hard to play? Try these video lessons and learn fast. | Correct




comments powered by Disqus
↑ Back to top | Tablatures and chords are parodies/interpretations of the original songs. You may use it for private study, scholarship, research or language learning purposes only