» » »

Hey Lags! Nice Slacks!! Tabs (ver.1)

Artists:  A B C D E F G H I J K L M N O P Q R S T U V W X Y Z # 

Hey Lags! Nice Slacks!! Tabs (ver.1)

Captain Everything
Rating:
0/5 (0 votes)

Hard to play? Try these video lessons and learn fast.
                
standard tuning 
x = mute 
~ = let ring 
intro 

E--- 
B--- 
G--- 
D-7~ 
A-7~ 
E-5~ about 2 second gap then 

E----------------------------------------------------------------------------- 
B----------------------------------------------------------------------------- 
G-7-7-7-7-7-4-9-9-9-9-9-9--------7-7-7-7-7-4-9-9-9-9-7-7-7-7---------7-7-7-7-7 
D-7-7-7-7-7-4-9-9-9-9-9-9-----7--7-7-7-7-7-4-7-7-7-7-7-7-7-7-7-7-7-7-7-7-7-7-7 
A-5-5-5-5-5-2-7-7-7-7-7-7-----7--5-5-5-5-5-2-7-7-7-7-5-5-5-5-7-7-7-7-5-5-5-5-5 
E-----------------------------5------------------------------5-5-5-5---------- 

small pause then 

E--------------------------------------------------------- 
B--------------------------------------------------------- 
G-7-7-7-7---9-9-9-9-9-9----------------------7-6-7-9-7-6-7 
D-7-7-7-7-7-7-7-7-7-7-7-----7----x-x-7---7---7-6-7-9-7-6-7 
A-5-5-5-5-7-7-7-7-7-7-7-----7----x-x-7---7---5-4-5-7-5-4-5 
E---------5-----------------5----x-x-5---5---------------- 

verse (ska part) 

E-x-5-x-5-x-5-x-5-x-4-x-4-x-4-x-4-x-2-x-2-x-2-x-2-x-4-x-4-x-4-x-4 
B-x-5-x-5-x-5-x-5-x-5-x-5-x-5-x-5-x-3-x-3-x-3-x-3-x-5-x-5-x-5-x-5 x4 
G-x-6-x-6-x-6-x-6-x-4-x-4-x-4-x-4-x-2-x-2-x-2-x-2-x-4-x-4-x-4-x-4 
D---------------------------------------------------------------- 
A---------------------------------------------------------------- 
E---------------------------------------------------------------- 


chorus 

E-                    E-                   E----------------------- 
B-                    B-                   B----------------------- 
G-                    G-9 play a few times G-------------7--7--7--7 
D-7 play a few times  D-9                  D-7--7--7--7--7--7--7--7 x2 
A-7                   A-7                  A-7--7--7--7--5--5--5--5 
E-5                   E-                   E-5--5--5--5------------ 



E---------- 
B---------- 
G-9-9-7-7-- 
D-9-7-7-7-7~ add on 2nd time 
A-7-7-5-5-7~
E---------5~ 

bit after both verses n chorus hav been playd 

E------------------------------------------------- 
B------------------------------------------------- 
G-7~---4-9------7~---4-9-7-7-7-7---------7-7-7-7-7 
D-7~---4-9-7~---7~---4-9-7-7-7-7-7-7-7-7-7-7-7-7-7 small pause again then 
A-5~---2-7-7~---5~---2-7-5-5-5-5-7-7-7-7-5-5-5-5-5 
E----------5~--------------------5-5-5-5---------- 

E---------------------- 
B---------------------- 
G-7-7-7-7---9-9-9-9-9-9 
D-7-7-7-7-7-7-7-7-7-7-7 
A-5-5-5-5-7-7-7-7-7-7-7 
E---------5------------ 

E-x-5-x-5-x-5-5-5-5-x-4-x-4-x-2-2-2-2-4-4-4-4 
B-x-5-x-5-x-5-5-5-5-x-5-x-5-x-3-3-3-3-5-5-5-5 x4 
G-x-6-x-6-x-6-6-6-6-x-4-x-4-x-2-2-2-2-4-4-4-4 
D-------------------------------------------- 
A-------------------------------------------- 
E-------------------------------------------- 

then play the verse again but only twice through 

Outro 

E-     E-      E-      E-        play each of these powerchords few times each
B-     B-      B-      B- 
G-     G-6     G-7     G-9  x6 
D-7    D-6     D-7     D-9 
A-7    A-4     A-5     A-7 
E-5    E-      E-      E- 

on last time miss out last 2 powerchords and play 

E-------------      E- 
B-------------      B- 
G-7-6-7-9-7-6-      G- 
D-7-6-7-9-7-6-  x3  D-7 end with this
A-5-4-5-7-5-4-      A-7 
E-------------      E-5
            
Hard to play? Try these video lessons and learn fast. | Correct




comments powered by Disqus
↑ Back to top | Tablatures and chords are parodies/interpretations of the original songs. You may use it for private study, scholarship, research or language learning purposes only