» » »

Captain Everything, Helen Bass tabs (ver.1)

Artists:  A B C D E F G H I J K L M N O P Q R S T U V W X Y Z # 

Helen Bass tabs (ver.1)

Captain Everything Tabs
 Rating:
4/5 (4 votes)
Helen lessons Tabs too difficult? Try these video lessons and learn fast
                Captain Everything
Helen (Hidden Track on 'Learning To Play With...)

Verse 1

G:----------------------|--------|
D:----------------------|--------|
A:-0>--4>---------------|-2>--5>-| x1
E:---------2>-0-2--0-2>-|--------|

Pre-chorus 

G:------------------------|
D:------------------------|
A:---------------------5>-| x1
E:-2>--0>--5>--3>--2>-----|

Chorus (Cut the cr*p...)

G:----------------|--------------------------|----------------|--------------------------|
D:----------------|--------------------------|----------------|--------------------------|
A:-0>--7>--5>--2>-|-0>--7>--5--4--5--4--5--4-|-0>--7>--9>--5>-|-0>--7>--5--4--5--4--5--4-| x1
E:----------------|--------------------------|----------------|--------------------------|

Verse 2

G:----------------------|-------------|
D:----------------------|-------------|
A:-0>--4>---------------|-2>--5>--5-4-| x1
E:---------2>-0-2--0-2>-|-------------|

Verse 1 x2
Pre-chorus x1
Chorus x1

Bridge

G:------------|------------|------------|------|
D:------------|------------|------------|------|
A:---------0>-|-4>--5>--0>-|---------0>-|-4--5-| x1
E:-2>--0>-----|------------|-2>--0>-----|------|

Last chorus

G:----------------|--------------------------|----------------|
D:----------------|--------------------------|----------------|
A:-0>--7>--5>--2>-|-0>--7>--5--4--5--4--5--4-|-0>--7>--9>--5>-| 
E:----------------|--------------------------|----------------|

G:------------------------------------------------|
D:------------------------------------------------|
A:-0>--7>--5--4--5--4--5--4--5--4--5--7--5--4--0~-|
E:------------------------------------------------|

An amazingly funny song. Watch out for all the rhythm changes if you want to be exact. The basic idea's easy enough though :)
            
Submit corrections

comments powered by Disqus
↑ Back to top | Captain Everything Bass for Helen. Lyrics for acoustic guitar and electric guitar. Tablatures and chords are parodies/interpretations of the original songs. You may use it for private study, scholarship, research or language learning purposes only