» » »

Captain Everything, Diary Of A Spengler Bass tabs (ver.1)

Artists:  A B C D E F G H I J K L M N O P Q R S T U V W X Y Z # 

Diary Of A Spengler Bass tabs (ver.1)

Captain Everything Tabs
 Rating:
4/5 (4 votes)
Diary Of A Spengler lessons Tabs too difficult? Try these video lessons and learn fast
1
                
Captain Everything

Intro/main riff

G:--------------------|--------------------|--------------------|----------------------------|
D:--------------------|--------------------|--------------------|----------------------------|
A:----4>-7-7-7--5-5-5-|----4>-7-7-7--5-5-5-|----4>-7-7-7--5-5-5-|----4>-7-7-7--5-4-4-5-4-5---|
x1
E:-5>-----------------|-5>-----------------|-5>-----------------|-5>-----------------------2-|

Verse 

G:---------------------|---------------------|----------------|
D:---------------------|---------------------|----------------|
A:----5>----4>-2>-4-5>-|----5>----4>-2>-4-5>-|-----4>------5>-| x1
E:-5>----2>------------|-5>----2>------------|-5>------3>-----|

Chorus *Its the easy things that I don't comprehend...*

G:------------|------------|-------|
D:------------|------------|-------|
A:-----5>-----|-----5>-----|-----5-|
E:-7>------5>-|-7>------5>-|-7~----|

Intro/main riff x1
Verse x1
Chorus x1

Bridge

G:-----------------------------------|----------------------------|
D:-----------------------------------|----------------------------|
A:----------------4-4-4--5-5-5-------|----------------------5-5-5-| x2
E:-2>--0>--5-5-5---------------4-4-4-|-5-5-5--2-2-2--0-0-0--------|

G:----------------------------|----------------------------|
D:----------------------------|----------------------------|
A:-----------4-4--5-5-5-------|----------------------5-5-5-| x1
E:-2>--0>--5------------4-4-4-|-5-5-5--2-2-2--0-0-0--------|

G:---------------------|-------------|-------------|-------------|-------------|-------------|
D:---------------------|-------------|-------------|-------------|-------------|-------------|
A:------------4>----5>-|----4>----5>-|----4>----5>-|----4>----5>-|----4>----5>-|----4>----5>-|
E:-2>--0>--5>----2>----|-5>----2>----|-5>----2>----|-5>----2>----|-5>----2>----|-5>----2>----|

G:-------------------|-------9-9-9------9-7-7-7-|
D:-------------------|--------------------------|
A:-------------5>-7>-|----5>--------7-7---------|
E:-5>-4>-3>-2>-------|-4>-----------------------|

Intro/main riff x1


Captain Everything are the greatest band in the world!
            
Submit corrections

comments powered by Disqus
↑ Back to top | Captain Everything Bass for Diary Of A Spengler. Lyrics for acoustic guitar and electric guitar. 1 Tablatures and chords are parodies/interpretations of the original songs. You may use it for private study, scholarship, research or language learning purposes only