» » »

Captain Everything, Chance Of A Lunchtime Bass tabs (ver.1)

Artists:  A B C D E F G H I J K L M N O P Q R S T U V W X Y Z # 

Chance Of A Lunchtime Bass tabs (ver.1)

Captain Everything Tabs
Rating:
0/5 (0 votes)
Chance Of A Lunchtime lessons Tabs too difficult? Try these video lessons and learn fast
                Captain Everything

Intro

G:----|-----------------------------------------------------------|
D:----|-----------------------------------------------------------|
A:----|---------------9-9--9-11-11--11-7-7--7-7-7--7-7-7--7-7-6-4-|
E:-7~-|-7-7--7-7-7--7---------------------------------------------|

G:-----------------------------------------------------------|
D:-----------------------------------------------------------|
A:---------------9-9--9-11-11--11-7-7--7-7-7--7-7-7--7-7-6-9-| 
E:-7-7--7-7-7--7---------------------------------------------|

G:-----------------------------------------------------------|
D:-----------------------------------------------------------|
A:---------------9-9--9-11-11--11-7-7--7-7-7--7-7-7--7-7-6-4-| 
E:-7-7--7-7-7--7---------------------------------------------|

G:-----------------------------------------------------------|
D:-----------------------------------------------------------|
A:---------------9-9--9-11-11--11-7-7--7-7-7--7-7-7--7-7-6-9-| 
E:-7-7--7-7-7--7---------------------------------------------|

Verse 1

G:---------------------------------------------------------|
D:---------------------------------------------------------|
A:----------------------6-6--6-7-7--7-7-7--7-7-7--7-7-7--7-| 
E:-7-7--7-7-7--7-4-4--4------------------------------------|

G:---------------------------------------------------------|
D:---------------------------------------------------------|
A:---------------------------------------------------------| 
E:-7-7--7-7-7--7-4-4--4-5-5--5-0-0--0-0-0--0-0-0--0-0-0--0-|

G:---------------------------------------------------------|
D:---------------------------------------------------------|
A:----------------------6-6--6-7-7--7-7-7--7-7-7--7-7-7--7-| 
E:-7-7--7-7-7--7-4-4--4------------------------------------|

G:------------------------------------------------------|
D:------------------------------------------------------|
A:--------------------------------------------------7-6-| 
E:-7-7--7-7-7--7-4-4--4-5-5--5-0-0--0-0-0--0-0-0--0-----|

Chorus (?)

G:--------------------------------------------------------------------------------------------|
D:--------------------------------------------------------------------------------------------|
A:-4-4--4-4-4--4-4-4--4-4-4--4----------------------------------------------------------------|
E:-----------------------------2-2--2-2-2--2-2-2--2-2-2--2-/7~-6~-0-0--0-0-0--0-0-0--0-0-0--0-|

G:--------------------------------------------------------|
D:--------------------------------------------------------|
A:-4-4--4-4-4--4-4-4--4-4-4--4----------------------------|
E:-----------------------------2-2--2-2-2--2-2-2--2-2-2-2-|

Interlude bit

G:----------------------------------------|
D:----------------------------------------|
A:--------9-9--11-11--9-9----7-7-9-9-9-7--| x2
E:-7-7------------------------------------|

Verse 2

G:--------------------------------------------------------------------|
D:--------------------------------------------------------------------|
A:-------------6-6--7-7----7-7--7-7-----------------------------------|
E:-7-7----4-4------------------------7-7----4-4--5-5--0-0----0-0--0-0-|

G:----------------------------------------------|
D:----------------------------------------------|
A:------------------7-7--7-7-7--7-7-7--7-7-7--7-|
E:-7-7------------------------------------------|

G:------------------------------------------------------|
D:------------------------------------------------------|
A:--------------------------------------------------7-6-|
E:-7-7--7-7-7--7-4-4--4-5-5--5-0-0--0-0-0--0-0-0--0-----|

Chorus x 1

Another interlude bit

G:-----------------------------------------------------------|
D:-----------------------------------------------------------|
A:---------------9-9--9-11-11--11-7-7--7-7-7--7-7-7--7-7-6-4-|
E:-7-7--7-7-7--7---------------------------------------------|

G:-----------------------------------------------------------|
D:-----------------------------------------------------------|
A:---------------9-9--9-11-11--11-7-7--7-7-7--7-7-7--7-7-6-4-|
E:-7-7--7-7-7--7---------------------------------------------|

G:-----------------------------------------------------------|
D:-----------------------------------------------------------|
A:---------------9-9--9-11-11--11-7-7--7-7-7--7-7-7--7-7-6-9-| 
E:-7-7--7-7-7--7---------------------------------------------|

G:-----------------------------------------------------------|
D:-----------------------------------------------------------|
A:---------------9-9--9-11-11--11-7-7--7-7-7--7-7-7--7-7-6-4-|
E:-7-7--7-7-7--7---------------------------------------------|

G:-----------------------------------------------------------|
D:-----------------------------------------------------------|
A:---------------9-9--9-11-11--11-7-7--7-7-7--7-7-7--7-7-7-7-| 
E:-7-7--7-7-7--7---------------------------------------------|

G:--------------------------------------------------------|
D:--------------------------------------------------------|
A:--------4-6----6-7----9-7-6---------------7-7--7-7-7--7-|
E:-6-7------------------------4-4--4-4-4--4---------------|

G:-----------------------------------------------------------|
D:-----------------------------------------------------------|
A:---------------9-9--9-11-11--11-7-7--7-7-7--7-7-7--7-7-7-7-|
E:-7-7--7-7-7--7---------------------------------------------|

G:-----------------------------------------------------|
D:-----------------------------------------------------|
A:-------6-6-6-7-7-7-9-7-6---------------7-7--7-7-7--7-|
E:-7-7-7-------------------4-4--4-4-4--4---------------|

G:-----------------------------------------------------------|
D:-----------------------------------------------------------|
A:---------------9-9--9-11-11--11-7-7--7-7-7--7-7-7--7-7-6-4-| 
E:-7-7--7-7-7--7---------------------------------------------|
            
Submit corrections

comments powered by Disqus
↑ Back to top | Captain Everything Bass for Chance Of A Lunchtime. Lyrics for acoustic guitar and electric guitar. Tablatures and chords are parodies/interpretations of the original songs. You may use it for private study, scholarship, research or language learning purposes only