» » »

Captain Cleanoff, Uni Wanker Tabs (ver.1)

Artists:  A B C D E F G H I J K L M N O P Q R S T U V W X Y Z # 

Uni Wanker Tabs (ver.1)

Captain Cleanoff Tabs
 Rating:
4/5 (4 votes)
Uni Wanker lessons Tabs too difficult? Try these video lessons and learn fast
1
                Band: Captain Cleanoff 
Label: No Escape 





Tuning: C# G# C# F# A# D# 


b = bend                p = pull off 
h = half                h = hammer on 
f = full                q = quarter 
r = release             t = tap 
/ = slide up            \ = slide down 
ah = atificial harmonic  ~ = vibrato 




Riff 1a 

(0:00-0:05) 
|-------------------------| 
|-------------------------| 
|-------------------------| 
|-5------4------4------2--| 
|-3------2------1------0--| 
|----3-3----3-3----3-3----| 
     . .    . .    . . 

Riff 1b 

(0:05-0:09) 
|-------------------------| 
|-------------------------| 
|-------------------------| 
|-------------------------| 
|-3------2------1------0--| 
|----3-3----3-3----3-3----| 

Fill 1 

(0:09-0:12) 
|-------------------------| 
|-------------------------| 
|-------------------------| 
|-------------------------| 
|-3-----------------------| 
|-3-----------------------| 

Riff 2a 

(0:12-0:17) 
|---------------------------------------------------------------| 
|---------------------------------------------------------------| 
|---------------------------------------------------------------| 
|---------------------------------------------------------------| 
|---------------------------------------------------------------| 
|-333366222233336622223333662222333366222233336622223333662222--| 


Riff 2b 

(0:18-21) 
|-----------------------------------------------------| 
|-----------------------------------------------------| 
|-----------------------------------------------------| 
|-3333662222333366222233336622223333662222------------| 
|-----------------------------------------------------| 
|-----------------------------------------3333662222--| 


Riff 3 

(0:22-0:29) 
|--------------------------------| 
|--------------------------------| 
|--------------------------------| 
|--------------------------------| 
|-33336655666666-33336655222222--| 
|-33336655666666-33336655222222--| 




Riff2c 

(0:29-0:34) 
|-------------------------------------------| 
|-------------------------------------------| 
|-------------------------------------------| 
|---------------------33336622223333662222--| 
|-------------------------------------------| 
|-33336622223333662222----------------------| 




Riff4 

(0:35-0:39) 
|-----------------------| 
|-----------------------| 
|-----------------------| 
|-----------------------| 
|-2365-2365-2365-2365-2-| 
|-2365-2365-2365-2365-2-| 
  .... .... .... .... 


End.
            
Submit corrections

comments powered by Disqus
↑ Back to top | Captain Cleanoff Tabs for Uni Wanker. Lyrics for acoustic guitar and electric guitar. 1 Tablatures and chords are parodies/interpretations of the original songs. You may use it for private study, scholarship, research or language learning purposes only