» » »

Captain Cleanoff, Highschool-slaughter-epidemic Tabs (ver.1)

Artists:  A B C D E F G H I J K L M N O P Q R S T U V W X Y Z # 

Highschool-slaughter-epidemic Tabs (ver.1)

Captain Cleanoff Tabs
Rating:
0/5 (0 votes)
Highschool-slaughter-epidemic lessons Tabs too difficult? Try these video lessons and learn fast
                Band: Captain Cleanoff 



Code: 
. - palm mute           / - slide up to 
\ - slide down to       x – Staccato 
h - hammer on           p - pull off 
, - slight palm mute    () - ghost note, sustained note 
" - tremolo note        <> - Trill 
L – left channel only   R – right channel only 
* - see comment 

Suffixes for bend 
f - full bend       h - half bend 
q - quarter bend    t - tap bend 
^ - Hold bend       r - release bend 
~ - vibrato bend 

Suffixes for harmonic 
ph - pinched harmonic   n – natural/artificial harmonic 

Tuning C# G# C# F# A# D# 


Riff 1 (0:18) play 6 times 
|-------------------------| 
|-------------------------| 
|-------------------------| 
|-7--7--------------------| 
|-5--5--6--6--8--8--3--3--| 
|-------6--6--8--8--3--3--| 

Riff 2 (0:31) play 4 times 
|------------------------------------------------------| 
|------------------------------------------------------| 
|------------------------------------------------------| 
|-4--6/7-4--6/7-4--6/7-4--6/7--------------------------| 
|-2--4/5-2--4/5-2--4/5-2--4/5-6-5\3-6-5\3-6-5\3-6-5\3--| 
|-----------------------------6-5\3-6-5\3-6-5\3-6-5\3--| 

Riff 3 (0:47) play 4 times 
|-------------------------| 
|-------------------------| 
|-------------------------| 
|-4--4--7--7--------------| 
|-2--2--5--5--6--6--3--3--| 
|-------------6--6--3--3--| 

Riff 2 x 1 (0:56) 

Fill 1 (1:12) 
|------------| 
|------------| 
|------------| 
|------------| 
|-3----------| 
|-3----------| 

Riff 4 (1:16) play 4 times 
|------------------------------------------------------------| 
|------------------------------------------------------------| 
|------------------------------------------------------------| 
|------------------------------------------------------------| 
|-6-5-10-9--9-9-9-9-9-9-9-9-9-9-6-5-3-2--2-2-2-2-2-2-2-2-2-2-| 
|-6-5-10-9--9-9-9-9-9-9-9-9-9-9-6-5-3-2--2-2-2-2-2-2-2-2-2-2-| 
            . . . . . . . . . .          . . . . . . . . . . 


Riff 5 (1:40) play till end 
|-----------------| 
|-----------------| 
|-----------------| 
|-------5--4------| 
|-6--3--3--2--3-6-| 
|-6--3--------3-6-| 
              . . 

End (1:12) 
|---| 
|---| 
|---| 
|---| 
|-6-| 
|-6-|
            

comments powered by Disqus
↑ Back to top | Captain Cleanoff Tabs for Highschool-slaughter-epidemic. Lyrics for acoustic guitar and electric guitar. Tablatures and chords are parodies/interpretations of the original songs. You may use it for private study, scholarship, research or language learning purposes only