» » »

Excess Baggage Tabs (ver.1)

Artists:  A B C D E F G H I J K L M N O P Q R S T U V W X Y Z # 

Excess Baggage Tabs (ver.1)

Captain Cleanoff
Rating:
0/5 (0 votes)

Hard to play? Try these video lessons and learn fast.
                Band: Captain Cleanoff 



Code: 
. - palm mute           / - slide up to 
\ - slide down to       x – Staccato 
h - hammer on           p - pull off 
, - slight palm mute    () - ghost note, sustained note 
" - tremolo note        <> - Trill 
L – left channel only   R – right channel only 
* - see comment 

Suffixes for bend 
f - full bend       h - half bend 
q - quarter bend    t - tap bend 
^ - Hold bend       r - release bend 
~ - vibrato bend 

Suffixes for harmonic 
ph - pinched harmonic   n – natural/artificial harmonic 

Tuning C# G# C# F# A# D# 

Intro (0:00) 
|------------| 
|------------| 
|------------| 
|------------| 
|-6--3-4--2--| 
|-6--3-4--2--| 

Riff 1 (0:02) play 8 times 
|----------| 
|----------| 
|-8--10-7--| 
|----------| 
|----------| gtr 1 
|----------| 

|---------| 
|---------| 
|---------| 
|---------| gtr 2 
|-6--8-5--| 
|-6--8-5--| 

Riff 2 (0:10) play twice 
|------------------------------------------------------------------| 
|------------------------------------------------------------------| 
|------------------------------------------------------------------| 
|------------------------------------------------------------------| 
|-5555444455557777888877778888777755554444555588884444444444444444-| 
|------------------------------------------------------------------| 

Riff 3 (0:19) play twice 
|---------------------------------------------| 
|---------------------------------------------| 
|---------------------------------------------| 
|-7--6/7--9/10-9/10-9\7--6\7--10\6--666666666-| 
|-5--4/5--7/8--7/8--7\5--4\5--8-\4--444444444-| 
|---------------------------------------------| 

Riff 4 (0:26) play twice 
|---------------------------------------------| 
|---------------------------------------------| 
|---------------------------------------------| 
|-3--2/3--5/6--5/6--5\3--2/3--6\2---222222222-| 
|---------------------------------------------| 
|---------------------------------------------| 

|---------------------------------------------| 
|---------------------------------------------| 
|---------------------------------------------| 
|-7--6/7--9/10-9/10-9\7--6/7--10\6--666666666-| 
|-5--4/5--7/8--7/8--7\5--4/5--8-\4--444444444-| 
|---------------------------------------------| 

Riff 1 x 1/2 (0:34) 

Riff 5 (0:38) 
|-------------------------| 
|-------------------------| 
|-------------------------| 
|-------------------------| 
|-6--5--6--5--6--5--6--5--| 
|-6--5--6--5--6--5--6--5--| 

End
            
Hard to play? Try these video lessons and learn fast. | Correct




comments powered by Disqus
↑ Back to top | Tablatures and chords are parodies/interpretations of the original songs. You may use it for private study, scholarship, research or language learning purposes only