» » »

Chemical Imbalance Tabs (ver.1)

Artists:  A B C D E F G H I J K L M N O P Q R S T U V W X Y Z # 

Chemical Imbalance Tabs (ver.1)

Captain Cleanoff
Rating:
0/5 (0 votes)

Hard to play? Try these video lessons and learn fast.
                Band: Captain Cleanoff



Code:
Suffixes for bend:
fb - full bend       hb - half bend
qb - quarter bend    t - tap bend
r - release bend

Suffixes for harmonic:
^ - pinched harmonic      n – natural harmonic

Suffixes for mute:
. – palm mute            x – staccato mute
, - light palm mute      ; - heavy palm mute

Other:
/ - slide up to            \ - slide down to       
h - hammer on              p - pull off
" - tremolo note           <> - Trill
* - see comment

Tuning C# G# C# F# A# D#


Riff 1 (0:17)
                                   [x6]
|-------------------------------------|--------|
|-------------------------------------|--------|
|-------------------------------------|--------|
|-3-----3--4--------3-----3--4--------|--------|
|-1--2--1--2--2--2--1--2--1--2--2--2--|-5-6-5--|
|----2--------2--2-----2--------2--2--|-5-6-5--|


Riff 2 (0:31) play 4 times
|------------------------------------------|
|------------------------------------------|
|------------------------------------------|
|---------33332222-------------------------|
|-2-2-2-2---------55552222-8-8-8-8-6-5-3-5-|
|-2-2-2-2------------------8-8-8-8-6-5-3-5-|

Riff 3 (0:47) play 4 times
|------------------|
|------------------|
|------------------|
|------------------|
|-2-5-3-5-6-6-6-6--|
|-2-5-3-5-6-6-6-6--|

Riff 2 x 1 (0:55)
Riff 3 x 1 (1:11)

Riff 4 (1:19) play 8 times
|--------------|
|--------------|
|--------------|
|--------------|
|-2--3--5-3-6--|
|-2--3--5-3-6--|
        . .

End (1:27)
|----|
|----|
|----|
|----|
|-2--|
|-2--|
            
Hard to play? Try these video lessons and learn fast. | Correct




comments powered by Disqus
↑ Back to top | Tablatures and chords are parodies/interpretations of the original songs. You may use it for private study, scholarship, research or language learning purposes only