» » »

Zig Zag Wanderer Bass tabs (ver.1)

Artists:  A B C D E F G H I J K L M N O P Q R S T U V W X Y Z # 

Zig Zag Wanderer Bass tabs (ver.1)

Captain Beefheart
Rating:
5/5 (1 vote)

Hard to play? Try these video lessons and learn fast.
                G|-9-7-9-7-9-7-9-7-9-7-9-7-----------------|
D|-----------------------------------------|
A|-----------------------------------------|
E|-----------------------------------------|

G|-----9----------4---7---4--------|
D|---9---9------7---7---7---7------|
A|-7--------5----------------------|
E|---------------------------------|

Zig zag wanderer, zig zag wanderer 
G|------7---9---7--------4---7---4----|
D|----9---9---9--------7---7---7---7--|
A|-7---------------5------------------|
E|------------------------------------|

You can huff, you can puff
You'll never blow my house down
You can zig, you can zag
Whoa I'm gonna stay, 
G|------9-----------------------9----------|
D|----9---9---------7--5------9---9---etc--|
A|-7--------5----5-------5/7---------------|
E|-----------------------------------------|

gonna stay around            gonna stay around
G|--------------------------|--------------------------|
D|--------------------------|--------------------------|
A|-5-5—-5-5--5-5--5-5--5-5--|-5-5-5-5-5-5-5-5-5-5-5-5-5|
E|--------------------------|--------------------------|

You can jump, you can holler
Never lose what I found
Heaven's free 'cept for a dollar

You can zig, you can zag
Whoa I'm gonna stay, gonna stay around 

The zig zag wanderer had a zigzag child
Zig zag traveller for the mercy mile
Found his wheels and nature scene
Quenched his thirst, in a way it never been
Zig zag wanderer 
G|--------------------------------------------|
D|--------5---------------------5-------------|
A|------7---5--7--------------7---5--7--------|
E|-0--7----------5--3--0-0--7----------5--3-0-|

You can dance, you can prance
Freeze those timbers, drop some beams
Hide my shield, throw away my lance
G|------9-----------------------9----------|
D|----9---9---------7--5------9---9---etc--|
A|-7--------5----5-------5/7---------------|
E|-----------------------------------------|
 
Zig zag child, mercy mile
G|----------------------------------|
D|----------------------------------|
A|-7-7--5--55--55--7-7-5--55--55----|
E|----------------------------------|
Zig zag dream, zig zag dream
G|----------------------------------|
D|----------------------------------|
A|-7-7-5-----------7-7-5------------|
E|----------------------------------|

G|-9-7-9-7-9-7-9-7-9-7-9-7-----------------|
D|-----------------------------------------|
A|-----------------------------------------|
E|-----------------------------------------|
            
Hard to play? Try these video lessons and learn fast. | Correct




comments powered by Disqus
↑ Back to top | Tablatures and chords are parodies/interpretations of the original songs. You may use it for private study, scholarship, research or language learning purposes only