>
 >
Too Much Time

Too Much Time Guitar Tabs

Captain Beefheart - Too Much Time chords, tabs, tablatures, lyrics

Guitar lessons | Add/correct | Request | Top 50 tabs Artists:  A B C D E F G H I J K L M N O P Q R S T U V W X Y Z 0-9

Too Much Time Guitar Tabs – Captain Beefheart

CD, Sheet music, Poster

Do you like Too Much Time? Share with your friends now
Tabs
Band: Captain Beefheart

I have parts of the leads for the outro but I intend to add it on when completed - but 
bear in
mind this has (sadly) been sitting on my computer for months unchanged.

Standard tuning

A     x0222x
A5    577xxx
B5    799xxx
Bm    x24432
D/F#  xx4232

Intro
|-------------------------|
|-------------------------|
|-------------------(7)---|
|-7-9-9/11-11-9--7-9-7----|
|--------------------9----|
|-5-7-7/9--9--7--5-7------|
                      (x2)

|---------------------------------|------------|
|---------------------------------|------------|
|--------------------7---7--7-7-7-|------------|
|-7-9-9/11-11-9--7-9-7---7--7-7-7-|-7-9-9/11---|
|--------------------9---9--9-9-9-|------------|
|-5-7-7/9--9--7--5-7--------------|-5-7-7/9----|
                              (x2)

Chorus
  A5                  B5  A5                     B5A5
|--------------------------------------------------------|
|--------------------------------------------------------|
|------------11-9----------------------------------------|
|------------------11-9---7-------------11-9---7-9-7-----|
|------------9--7----------------------------------------|
|------------------9--7-0-5-------------9--7-0-5-7-5-----|
|
|--------------------------------------------------------|
|-10-/12-10-------------12-/14-12-10---------------12-10-|
|-9--/11-9--------------11-/14-11-9----------------11-9--|
|--------------------------------------------------------|
|--------------------------------------------------------|
|--------------------------------------------------------|

           B5    A5
|-----------------------|
|-----------------------|
|-11-9------------------|
|-------11-9-----7------|
|-9--7------------------|
|-------9--7--0--5------|
|
|-----------------------|
|-19-19-17-14-12-10-7---|
|-18-18-16-14-11-9--6---|
|-----------------------|
|-----------------------|
|-----------------------|

   A       D/F#           Bm    A
|------------------------------------|
|------------------------------------|
|--9-------11------------------------|
|-------------------------9-----7----|
|--7-------9-------------------------|
|-------------------------7-----5----|
  Too much time to be with out love


Verse
  A
|-------------------------------------------------|
|-0h2--0h2--0-------------0h2--0h2--0-------------|
|---------------2------2----------------2------2--|
|------------------2h4---------------------2h4----|
|-------------------------------------------------|
|-------------------------------------------------|
|
|-------------------------------------------------|
|----------------------10----------------------10-|
|------------------9/11--------------------9/11---|
|-------------------------------------------------|
|-------------------------------------------------|
|-------------------------------------------------|
  In   my  life I got a   deep devotion

|----------0-----------------------0-----------------|
|-0h2--2------0------------0h2--2------0-------------|
|----------------2------2------------------2------2--|
|-------------------2h4-----------------------2h4----|
|----------------------------------------------------|
|----------------------------------------------------|
|
|----------------------------------------------------|
|-----------------------10------------------------10-|
|-------------------9/11----------------------9/11---|
|----------------------------------------------------|
|----------------------------------------------------|
|----------------------------------------------------|
  Wide as the sky          deep as the ocean

|-----------------------------------------------------|
|-0h2-0h2--0----------------0h2---0h2--0--------------|
|--------------2---------2------------------2------2--|
|--------------------2h4-----------------------2h4----|
|-----------------------------------------------------|
|-----------------------------------------------------|
|
|-----------------------------------------------------|
|------------------------10------------------------10-|
|--------------------9/11----------------------9/11---|
|-----------------------------------------------------|
|-----------------------------------------------------|
|-----------------------------------------------------|
  Every   war that's waged  makes me  cry

                          Bm       A
|---------0------------------------------|
|-0h2--2----0----------------------------|
|--------------2------2---4----4--2------|
|-----------------2h4-----4----4--2------|
|----------------------------------------|
|----------------------------------------|
|
|----------------------------------------|
|---------------------10--12---12-10-----|
|-----------------9/11----11---11-9------|
|----------------------------------------|
|----------------------------------------|
|----------------------------------------|
  Every bird that goes by gets me high


Break
|-------------------------------------------------|
|-------------------------------------------------|
|--2--------4-----4--/6-----4---2------4----6-----|
|-------------------------------------------------|
|-------------------------------------------------|
|-------------------------------------------------|
  Sometime when it's late and I'm a little hungry

|------------------------------------|
|------------------------------------|
|--2----4----4--/6---4----2---4------|
|------------------------------------|
|------------------------------------|
|------------------------------------|
     I heat up some old stale beans

|----------------------------|
|----------------------------|
|--2---4--4-/6---4---2-------|
|----------------------------|
|----------------------------|
|----------------------------|
  open up a can of sardines

|---------------------------------------------------------------|
|---------------------------------------------------------------|
|-4-6---------------2----4--------------------------------------|
|---------4----------------------/7----4-------2----------------|
|--------------------------------------------------------4-2----|
|------------------------------------------------------------5--|
      eat crackers and dream about somebody to cook for me

|---------|
|---------|
|---------|
|-11-7-9--|
|---------|
|-9--5-7--|


Chorus
A
I got too much time, too much time
               D/F#          Bm   A
I got too much time to be without love


Verse
 A
In my life I've got a deep devotion
Wide as the sky and deep as the ocean
Every war that's waged makes me cry
                        Bm      A
Every bird that goes by gets me high


|-12/14-14/12--------------------|
|-12/14-14/12-12/10-10/7-7/5-10--|
|-------------11/9--9-/6-6/4-9---|
|--------------------------------|
|--------------------------------|
|--------------------------------|

Chorus
A
I got too much time, too much time
               D/F#          Bm   A
I got too much time to be without love





Comments


Popular Captain Beefheart tabs & chords
Zig Zag Wanderer Bass Tabs
Bluejeans And Moonbeams Chords
Observatory Crest Chords
Dropout Boogie Tabs
Harry Irene Tabs
Her Eyes Are A Blue Million Miles Tabs
Her Eyes Are A Blue Million Miles Intro Tabs
I'm Glad Tabs
My Human Gets Me Blues Tabs
Sure 'Nuff 'n' Yes I Do Tabs


Song lyrics



↑ Back to top | Tablatures and chords are parodies/interpretations of the original songs. You may use it for private study, scholarship, research or language learning purposes only
© 2014 AZChords.com Contact us | Privacy policy | DMCA | Add/correct tabs | Request tabs | Top 50 tabs