» » »

Dropout Boogie Tabs (ver.1)

Artists:  A B C D E F G H I J K L M N O P Q R S T U V W X Y Z # 

Dropout Boogie Tabs (ver.1)

Captain Beefheart
Rating:
0/5 (0 votes)

Hard to play? Try these video lessons and learn fast.
                The tuning is standard, but on the record the guitar is down by one
quarter tone.

--------------------------------------------------------------|
--------------------------------------------------------------|
--------------------------------------------------------------|
-8-10-10-8-10-8-10-10-8-10-10-13-10-8-10-13-10-8-8-10-10-8-10-|
-8-10-10-8-10-8-10-10-8-10-10-13-10-8-10-13-10-8-8-10-10-8-10-|
-6-8--8--6-8--6-8--8--6-8--8--11-8--6-8--11-8--6-6-8--8--6-8--|
                                                              x3
------------------------------------ ---------------------------|
------------------------------------ ---------------------------|
------------------------------------ ---------------------------|
-8-10-10-8-10-10-13-10-8-10-13-10-8- -8-10-10-8-10-8-10-10-8-10-|
-8-10-10-8-10-10-13-10-8-10-13-10-8- -8-10-10-8-10-8-10-10-8-10-|
-6-8--8--6-8--8--11-8--6-8--11-8--6- -6-8--8--6-8--6-8--8--6-8--|
                       x2
------------------------- -------------------------------------|
------------------------- -------------------------------------|
------------------------- -------------------------------------|
-13-15-13-15-13-15-13-15- -10-13-10-8-10-13-10-8-8-10-10-8-5-5-|
-13-15-13-15-13-15-13-15- -10-13-10-8-10-13-10-8-8-10-10-8-5-5-|
-11-13-11-13-11-13-11-13- -8--11-8--6-8--11-8--6-6-8--8--6-3-3-|
                                         x2
--------------- --------------------------- ------------------|
--------------- --------------------------- ------------------|
--------------- --------------------------- ------------------|
-8-10-10-8-5-5- -8-10-10-8-10-8-10-10-8-10- -8-10-10-10-13-10-|
-8-10-10-8-5-5- -8-10-10-8-10-8-10-10-8-10- -8-10-10-10-13-10-|
-6-8--8--6-3-3- -6-8--8--6-8--6-8--8--6-8-- -6-8--8--8--11-8--|

---------------------------------------------6-8--8--8--6-6-|
---------------------------------------------6-8--8--8--6-6-|
---------------------------------------------7-9--9--9--7-7-|
-8-10-10-10-13-10-8-8-10-10-10-8-8-13-10-8-8-8-10-10-10-8-8-|
-8-10-10-10-13-10-8-8-10-10-10-8-8-13-10-8-8-8-10-10-10-8-8-|
-6-8--8--8--11-8--6-6-8--8--8--6-6-11-8--6-6-6-8--8--8--6-6-|
                                                         x2
-11-8--6-6- -------------------------------------------6---|
-11-8--6-6- -----------------------------------------6-6---|
-12-9--7-7- ----------------------------------------7--7---|
-13-10-8-8- ---8-10-8-10---8-10-8-10--8-10-8-10-10-8---8-6-|
-13-10-8-8- -10----------10---------10---------------------|
-11-8--6-6- -----------------------------------------------|
            (optional piano notes for 2nd time)
            --------------------------------|
            --------------------------------|
            --7-9-7-9-7-9-7-9-7-9-7-9-9-7---|
            -9-------9-------9-----------10-|
            --------------------------------|
            --------------------------------|

-1-----1----------------- --------------------------------|
--4-3-1-4-3-1-4-3-1------ --------------------------------|
-------------3-----3-1-4- --------------------------------|
------------------------- -5-5-8-5-8-9-10-10-8-10-8-10-10-|
------------------------- -5-5-8-5-8-9-10-10-8-10-8-10-10-|
------------------------- -3-3-6-3-6-7-8--8--6-8--6-8--8--|
                                x2              x3
------ --------------------------- ---------------|
------ --------------------------- ---------------|
------ --------------------------- ---------------|
-8-10- -8-10-10-8-10-8-10-10-8-10- -8-10-10-8-5-5-|
-8-10- -8-10-10-8-10-8-10-10-8-10- -8-10-10-8-5-5-|
-6-8-- -6-8--8--6-8--6-8--8--6-8-- -6-8--8--6-3-3-|
                         x2
--------------------------- -----------------------------|
--------------------------- -----------------------------|
--------------------------- -----------------------------|
-8-10-10-8-10-8-10-10-8-10- -8-10-10-10-13-10-8-10-10-10-|
-8-10-10-8-10-8-10-10-8-10- -8-10-10-10-13-10-8-10-10-10-|
-6-8--8--6-8--6-8--8--6-8-- -6-8--8--8--11-8--6-8--8--8--|

--------- ----------------------------------------6---|
--------- ----------------------------------------6---|
--------- ----------------------------------------7---|
-13-10-8- ---8-10-8-10--8-10-8-10--8-10-8-10-10-8-8-6-|
-13-10-8- -10---------10---------10-------------------|
-11-8--6- --------------------------------------------|

--------------------------------------------|
--------------------------------------------|
--------------------------------------------|
-5-8-10-8-10-5-8-10-8-10-5-8-10-8-10-10-8-6-|
-5-8-10-8-10-5-8-10-8-10-5-8-10-8-10-10-8-6-|
-3-6-8--6-8--3-6-8--6-8--3-6-8--6-8--8--6-4-|

-3-6-8--6-8--3-6-8--6-8--3-6-8--6-8--8--6-4-|
-3-6-8--6-8--3-6-8--6-8--3-6-8--6-8--8--6-4-|
-4-7-9--7-9--4-7-9--7-9--4-7-9--7-9--9--7-5-|
-5-8-10-8-10-5-8-10-8-10-5-8-10-8-10-10-8-6-|
-5-8-10-8-10-5-8-10-8-10-5-8-10-8-10-10-8-6-|
-3-6-8--6-8--3-6-8--6-8--3-6-8--6-8--8--6-4-|

repeat until fade
            
Hard to play? Try these video lessons and learn fast. | Correct




comments powered by Disqus
↑ Back to top | Tablatures and chords are parodies/interpretations of the original songs. You may use it for private study, scholarship, research or language learning purposes only