» » »

Capital Lights, Worth As Much As A Counterfeit Dollar Tabs (ver.1)

Artists:  A B C D E F G H I J K L M N O P Q R S T U V W X Y Z # 

Worth As Much As A Counterfeit Dollar Tabs (ver.1)

Capital Lights Tabs
Rating:
2/5 (1 vote)
Worth As Much As A Counterfeit Dollar lessons Tabs too difficult? Try these video lessons and learn fast
                band: capital lights
tuning: drop C#
intro
Eb|-------------------------------------------------------------------|
Bb|-------------------------------------------------------------------|
Gb|-------------------------------------------------------------------|
Db|--0-------5--7-9---------------------------------------------------|
Ab|--0-------5--7-9---------------------------------------------------|
Db|--0-------5--7-9---------------------------------------------------|
  verse x4
Eb|-------------------------------------------------------------------|
Bb|-------------------------------------------------------------------|
Gb|-------------------------------------------------------------------|
Db|---99999999------55555555-----777777777----------------------------|
Ab|---99999999------55555555-----777777777----------------------------|
Db|---99999999------55555555-----777777777----------------------------|
pm after the second time dont palm mute

chorus x1
Eb|-----------------------------------------------------------|
Bb|-----------------------------------------------------------|
Gb|-----------------------------------------------------------|
Db|-00000000-55555555-22222222--0~~~~-------------------------|
Ab|-00000000-55555555-22222222--0~~~~-------------------------|
Db|-00000000-55555555-22222222--0~~~~-------------------------|
verse2 x4 on the third time only dont palm mute
Eb|-------------------------------------------------------------------|
Bb|-------------------------------------------------------------------|
Gb|-------------------------------------------------------------------|
Db|--9------5-----7---------------------------------------------------|
Ab|--9------5-----7---------------------------------------------------|
Db|--9------5-----7---------------------------------------------------|
 pm x8     x8    x8
guitar 2 verse 2 the 4th time only
Eb|-------------------------------------------------------------------|
Bb|---12-----15------10-----------------------------------------------|
Gb|---x------x-------x------------------------------------------------|
Db|---9-----12-------7------------------------------------------------|
Ab|-------------------------------------------------------------------|
Db|-------------------------------------------------------------------|
      8x    8x       8x

chorus x2
bridge
Eb|-------------------------------------------------------------------|
Bb|-------------------------------------------------------------------|
Gb|-------------------------------------------------------------------|
Db|---55-----22--------0000000000-----55----22--00000000--------------|
Ab|---55-----22--------0000000000-----55----22--00000000--------------|
Db|---55-----22--------0000000000-----55----22--00000000--------------|
bridge x 2
Eb|-------------------------------------------------------------------|
Bb|-------------------------------------------------------------------|
Gb|-------------------------------------------------------------------|
Db|---2~~~--0~~~------------------------------------------------------|
Ab|---2~~~--0~~~------------------------------------------------------|
Db|---2~~~--0~~~------------------------------------------------------|

Eb|-------------------------------------------------------------------|
Bb|-------------------------------------------------------------------|
Gb|-------------------------------------------------------------------|
Db|--9----5---7-------------------------------------------------------|
Ab|--9----5---7-------------------------------------------------------|
Db|--9----5---7-------------------------------------------------------|
    x8   x4  x4
chorus x2
Eb|-----------------------------------------------------------|
Bb|-----------------------------------------------------------|
Gb|-----------------------------------------------------------|
Db|-00000000-55555555-22222222--00000000----------------------|
Ab|-00000000-55555555-22222222--00000000----------------------|
Db|-00000000-55555555-22222222--00000000----------------------|

now my favorite part the key change

chorus x2
Eb|-----------------------------------------------------------|
Bb|-----------------------------------------------------------|
Gb|-----------------------------------------------------------|
Db|-22222222-77777777-44444444--22222222----------------------|
Ab|-22222222-77777777-44444444--22222222----------------------|
Db|-22222222-77777777-44444444--22222222----------------------|

ending

Eb|-----------------------------------------------------------|
Bb|-----------------------------------------------------------|
Gb|-----------------------------------------------------------|
Db|-22222222-77777777-44444444--22222222----------------------|
Ab|-22222222-77777777-44444444--22222222----------------------|
Db|-22222222-77777777-44444444--22222222----------------------|

Eb|-------------------------------------------------------------|
Bb|-------------------------------------------------------------|
Gb|-------------------------------------------------------------|
Db|-222~~~-777-44444444--22222222~~~----------------------------|
Ab|-222~~~-777-44444444--22222222~~~----------------------------|
Db|-222~~~-777-44444444--22222222~~~----------------------------|
    **     **
            
Submit corrections

comments powered by Disqus
↑ Back to top | Capital Lights Tabs for Worth As Much As A Counterfeit Dollar. Lyrics for acoustic guitar and electric guitar. Tablatures and chords are parodies/interpretations of the original songs. You may use it for private study, scholarship, research or language learning purposes only