» » »

Capital Lights, Work It Out Tabs (ver.1)

Artists:  A B C D E F G H I J K L M N O P Q R S T U V W X Y Z # 

Work It Out Tabs (ver.1)

Capital Lights Tabs
 Rating:
4/5 (4 votes)
Work It Out lessons Tabs too difficult? Try these video lessons and learn fast
1
                Capital Lights

drop D
intro
fades in
e|-------------------------|-----------------------------|
B|-------------------------|-----------------------------|
G|--11---------------------|-----------------------------|
D|--x----------------------|-----------------------------|
A|--9----------------------|-----------------------------|
D|-------------------------|-----------------------------|


e|----------------------------------------------------------|
B|----------------------------------------------------------|
G|----------------------------------------------------------|
D|---5555--0000-7777-9999----5555-0000--77777777---55-7-9---|
A|---5555--0000-7777-9999----5555-0000--77777777---55-7-9---|
D|---5555--0000-7777-9999----5555-0000--77777777---55-7-9---|

verse 
just bass and drums until he says
So I left the faucet in the bathroom on

then the guitars kick in
    guitar 1 x2                           guitar 2 x2
e|-------------------------------------|-----------------------------|
B|-------------------------------------|-----------------------------|
G|11-11-11-11-11-11-7-7-7-7-9-9-9-9----|-----------------------------|
D|-x-x-x-x-x-x-x-x--x-x-x-x-x-x-x-x----|55-7-9-9-999--555-777--------|
A|-9-9-9-9-9-9-9-9--5-5-5-5-7-7-7-7----|55-7-9-9-999--555-777--------|
D|-------------------------------------|55-7-9-9-999--555-777--------|

pre chorus
pm                           
e|-------------------------|-----------------------------|
B|-------------------------|-----------------------------|
G|-------------------------|-11--------------------------|
D|-5---7--9--9--5-7--------|-x---------------------------|
A|-5---7--9--9--5-7--------|-9---------------------------|
D|-5---7--9--8--5-7--------|-----------------------------|
  x4  x4 x4 x4 x4 x8          8x "now moving on"

chorus
e|------------------------------------------------------|
B|------------------------------------------------------|
G|------------------------------------------------------|
D|--5555--0000--7777--9999-5555-0000-77777777--55-7-9---|
A|--5555--0000--7777--9999-5555-0000-77777777--55-7-9---|
D|--5555--0000--7777--9999-5555-0000-77777777--55-7-9---|

verse 2 
pm x2
e|------------------------------------------------------|
B|------------------------------------------------------|
G|------------------------------------------------------|
D|--99999999-5555-7777----------------------------------|
A|--99999999-5555-7777----------------------------------|
D|--99999999-5555-7777----------------------------------|

pre chorus

chorus x2

solo


e|------------------------------------------------------------------|
B|--------------------------12-12-----------12-12-------------------|
G|-11-11--99-77-11-99-77-----------11-11-9-9-----11-11-99-11-9-7-5-3|
D|------------------------------------------------------------------|
A|------------------------------------------------------------------|
D|------------------------------------------------------------------|

x3
e|------------------------------------------------------|
B|------------------------------------------------------|
G|-----------5*-----------------------------------------|
D|-55-7-9-----------------------------------------------|
A|-55-7-9-----------------------------------------------|
D|-55-7-9-----------------------------------------------|

e|------------------------------------------------------|
B|------------------------------------------------------|
G|---9--11-12-14----------------------------------------|
D|---x--x--x--x-----------------------------------------|
A|---7--9-10-12-----------------------------------------|
D|------------------------------------------------------|
    x4 x4 x4 x4
no guitar

untill "now moving" on part
     guitar 1              guitar 2
e|----------------------|--------------------------------|
B|----------------------|--------------------------------|
G|--11------------------|--------------------------------|
D|--x-------------------|-----5-5---555555-----------------------|
A|--9-------------------|-----5-5---555555-----------------------|
D|----------------------|-----5-5---555555-----------------------|

chorus then end with solo
            
Submit corrections

comments powered by Disqus
↑ Back to top | Capital Lights Tabs for Work It Out. Lyrics for acoustic guitar and electric guitar. 1 Tablatures and chords are parodies/interpretations of the original songs. You may use it for private study, scholarship, research or language learning purposes only