>
 >
Rhythm N Moves

Rhythm N Moves Guitar Tabs

Capital Lights - Rhythm N Moves chords, tabs, tablatures, lyrics

Guitar lessons | Add/correct | Request | Top 50 tabs Artists:  A B C D E F G H I J K L M N O P Q R S T U V W X Y Z 0-9

Rhythm N Moves Guitar Tabs – Capital Lights

CD, Sheet music, Poster

Do you like Rhythm N Moves? Share with your friends now
Tabs
much I thought other people would want to play it as well. If you have any 

This is my first tab so dont be too hard on me :P

Band: Capital Lights
Tuning: Drop D (D,A,D,G,B,E)

INTRO: 
Guitar 1: [Radio Effect] I got the rhythm, she’s got the moves...
E|--------------------------------------------------------------------------------|
B|--------------------------------------------------------------------------------|
G|--------------------------------------------------------------------------------|
D|--1---1--1--1--8---8----3--3--3--5---5---1---1--1--1--8---8----3--3--3--3---3---|
A|--1---1--1--1--8---8----3--3--3--5---5---1---1--1--1--8---8----3--3--3--3---3---|
D|--1---1--1--1--8---8----3--3--3--5---5---1---1--1--1--8---8----3--3--3--3---3---| [2x]

Guitar 1: [Distortion]
E|--------------------------------------------------------------------------------|
B|--------------------------------------------------------------------------------|
G|--------------------------------------------------------------------------------|
D|--1---1--1--1--8---8----3--3--3--5---5---1---1--1--1--8---8----3--3--3--3---3---|
A|--1---1--1--1--8---8----3--3--3--5---5---1---1--1--1--8---8----3--3--3--3---3---|
D|--1---1--1--1--8---8----3--3--3--5---5---1---1--1--1--8---8----3--3--3--3---3---|

Guitar 2: [Distortion]
E|--------------------------------------------------------------------------|
B|--------------------------------------------------------------------------|
G|--------------------------------------------------------------------------|
D|--1--1-1-1-3/8--8---8-10-12-13-12-12--1--1-1-1-3/8--8---8-10-12-10-7-7-8--|
A|--------------------------------------------------------------------------|
D|--------------------------------------------------------------------------|


VERSE 1: 
Guitar 1: [Clean] Every sugar rush ends in a crash...
E|------------------------------------------------------------------|
B|------------------------------------------------------------------|
G|------------------------------------------------------------------|
D|------8-------8------3-------3-------1-------1-------1-------1----|
A|----8---8---8---8--3---3---3---3---1---1---1---1---1---1---1---1--|
D|--8-------8------3-------3-------1-------1-------1-------1--------| [2x]

Well Ive never been a class A act...
E|-------------------------------------------------------------------|
B|-------------------------------------------------------------------|
G|-------------------------------------------------------------------|
D|------5-------5-------1-------1-------8-------8-------3-------3----|
A|----5---5---5---5---1---1---1---1---8---8---8---8---3---3---3---3--|
D|--5-------5-------1-------1-------8-------8-------3-------3--------|

...but I can fake a mean heart attack...
E|-------------------------------------------------------------------|
B|-------------------------------------------------------------------|
G|-------------------------------------------------------------------|
D|------1-------1-------8-------8-------3-------3-------3-------3----|
A|----1---1---1---1---8---8---8---8---3---3---3---3---3---3---3---3--|
D|--1-------1-------8-------8-------3-------3-------3-------3--------|


PRE-CHORUS:
Guitar 1: [Palm mute] Yeah, I know what I like...
E|-------------------------------------------------------------------|
B|-------------------------------------------------------------------|
G|-------------------------------------------------------------------|
D|--5-5-5-5-5-5-5-5-1-1-1-1-1-1-1-1-8-8-8-8-8-8-8-8-3-3-3-3-3-3-3-3--|
A|--5-5-5-5-5-5-5-5-1-1-1-1-1-1-1-1-8-8-8-8-8-8-8-8-3-3-3-3-3-3-3-3--|
D|--5-5-5-5-5-5-5-5-1-1-1-1-1-1-1-1-8-8-8-8-8-8-8-8-3-3-3-3-3-3-3-3--|

[Plam Mute------------------------]
E|---------------------------------------------------------|
B|---------------------------------------------------------|
G|---------------------------------------------------------|
D|--5-5-5-5-5-5-5-5-1-1-1-1-1-1-1-1-1-1-1-1-1-1-1-3--------|
A|--5-5-5-5-5-5-5-5-1-1-1-1-1-1-1-1-1-1-1-1-1-1-1-3-[hold]-|
D|--5-5-5-5-5-5-5-5-1-1-1-1-1-1-1-1-1-1-1-1-1-1-1-3--------|


CHORUS 1: Cause I got the rhythm; shes got the moves...
Guitar 1: [Distortion]
E|--------------------------------------------------------------------------------|
B|--------------------------------------------------------------------------------|
G|--------------------------------------------------------------------------------|
D|--1---1--1--1--8---8----3--3--3--5---5---1---1--1--1--8---8----3--3--3--3---3---|
A|--1---1--1--1--8---8----3--3--3--5---5---1---1--1--1--8---8----3--3--3--3---3---| [2x]
D|--1---1--1--1--8---8----3--3--3--5---5---1---1--1--1--8---8----3--3--3--3---3---|

Guitar 2: [Distortion]
E|------------------------------------------------------------|
B|------------------------------------------------------------|
G|------------------------9-------------------------10-10-----|
D|--1--1-1-3-8--8---8-5-8---10--1-1--3-8--8--8-5-8--------10--|
A|------------------------------------------------------------|
D|------------------------------------------------------------|

E|--------------------------------------------------------------|
B|--------------------------------------------------------------|
G|--------------------------------------------------------------|
D|--1--1-1-3-8--8---8-5-8-13-12-12--1-1--3-8--8--8-5-8-12-10-8--|
A|--------------------------------------------------------------|
D|--------------------------------------------------------------|


VERSE 2:
Guitar 1: [Palm Mute] But she moves on oh so fast...
E|-------------------------------------------------------------------|
B|-------------------------------------------------------------------|
G|-------------------------------------------------------------------|
D|--8-8-8-8-8-8-8-8-3-3-3-3-3-3-3-3-0-0-0-0-0-0-0-0-0-0-0-0-0-0-0-0--|
A|--8-8-8-8-8-8-8-8-3-3-3-3-3-3-3-3-0-0-0-0-0-0-0-0-0-0-0-0-0-0-0-0--| [2x]
D|--8-8-8-8-8-8-8-8-3-3-3-3-3-3-3-3-0-0-0-0-0-0-0-0-0-0-0-0-0-0-0-0--|

[Clean] Well, this time it wasnt an act...
E|-------------------------------------------------------------------|
B|-------------------------------------------------------------------|
G|-------------------------------------------------------------------|
D|------8-------8-------5-------5-------8-------8-------3-------3----|
A|----5---5---5---5---1---1---1---1---8---8---8---8---3---3---3---3--|
D|--5-------5-------1-------1-------8-------8-------3-------3--------|

[Clean] Cause pure integritys something I lack...
E|-------------------------------------------------------------------|
B|-------------------------------------------------------------------|
G|-------------------------------------------------------------------|
D|------1-------1-------8-------8-------3-------3-------3-------3----|
A|----1---1---1---1---8---8---8---8---3---3---3---3---3---3---3---3--|
D|--1-------1-------8-------8-------3-------3-------3-------3--------|


PRE-CHORUS:
Guitar 1: [Palm mute] Yeah, I know what I like...
E|-------------------------------------------------------------------|
B|-------------------------------------------------------------------|
G|-------------------------------------------------------------------|
D|--5-5-5-5-5-5-5-5-1-1-1-1-1-1-1-1-8-8-8-8-8-8-8-8-3-3-3-3-3-3-3-3--|
A|--5-5-5-5-5-5-5-5-1-1-1-1-1-1-1-1-8-8-8-8-8-8-8-8-3-3-3-3-3-3-3-3--|
D|--5-5-5-5-5-5-5-5-1-1-1-1-1-1-1-1-8-8-8-8-8-8-8-8-3-3-3-3-3-3-3-3--|

[Plam Mute}
E|-------------------------------------------------------------------|
B|-------------------------------------------------------------------|
G|-------------------------------------------------------------------|
D|--5-5-5-5-5-5-5-5-1-1-1-1-1-1-1-1-3-3-3-3-3-3-3-3-3-3-3-3-3-3-3-3--|
A|--5-5-5-5-5-5-5-5-1-1-1-1-1-1-1-1-3-3-3-3-3-3-3-3-3-3-3-3-3-3-3-3--|
D|--5-5-5-5-5-5-5-5-1-1-1-1-1-1-1-1-3-3-3-3-3-3-3-3-3-3-3-3-3-3-3-3--|

Cause, Im breaking down, this is not who I am...
                                   [Palm mute first 4 notes here]
E|----------------------------------------------|
B|----------------------------------------------|
G|----------------------------------------------|
D|--1-1--1-1--3-3-3--5--5--8---1-1-1-1-1-1-1-3--|
A|--1-1--1-1--3-3-3--5--5--8---1-1-1-1-1-1-1-3--|
D|--1-1--1-1--3-3-3--5--5--8---1-1-1-1-1-1-1-3--|


CHORUS 2: I got the rhythm; shes got the moves...
Guitar 1: [Distortion]
E|--------------------------------------------------------------------------------|
B|--------------------------------------------------------------------------------|
G|--------------------------------------------------------------------------------|
D|--1---1--1--1--8---8----3--3--3--5---5---1---1--1--1--8---8----3--3--3--3---3---|
A|--1---1--1--1--8---8----3--3--3--5---5---1---1--1--1--8---8----3--3--3--3---3---| [4x]
D|--1---1--1--1--8---8----3--3--3--5---5---1---1--1--1--8---8----3--3--3--3---3---|

Guitar 2: [Distortion]
E|------------------------------------------------------------|
B|------------------------------------------------------------|
G|------------------------9-------------------------10-10-----|
D|--1--1-1-3-8--8---8-5-8---10--1-1--3-8--8--8-5-8--------10--|
A|------------------------------------------------------------|
D|------------------------------------------------------------|

E|--------------------------------------------------------------|
B|--------------------------------------------------------------|
G|--------------------------------------------------------------|
D|--1--1-1-3-8--8---8-5-8-13-12-12--1-1--3-8--8--8-5-8-12-10-8--|
A|--------------------------------------------------------------| [2x]
D|--------------------------------------------------------------|


BRIDGE:
Guitar 1: [Distortion] With her Im a better man...
E|-------------------------------------------------------------------|
B|-------------------------------------------------------------------|
G|-------------------------------------------------------------------|
D|--5-5-5-5-5-5-5-5-5-5-5-5-5-5-5-5-1-1-1-1-1-1-1-1-1-1-1-1-1-1-1-1--|
A|--5-5-5-5-5-5-5-5-5-5-5-5-5-5-5-5-1-1-1-1-1-1-1-1-1-1-1-1-1-1-1-1--|
D|--5-5-5-5-5-5-5-5-5-5-5-5-5-5-5-5-1-1-1-1-1-1-1-1-1-1-1-1-1-1-1-1--|

E|-----------------------------------------------------------------|
B|-----------------------------------------------------------------|
G|-----------------------------------------------------------------|
D|--3-3-3-3-3-3-3-3-3-3-3-3-3-3-5-5-5-5-5-5-5-5-7-7-7-7-7-7-7-7-8--|
A|--3-3-3-3-3-3-3-3-3-3-3-3-3-3-5-5-5-5-5-5-5-5-7-7-7-7-7-7-7-7-8--|
D|--3-3-3-3-3-3-3-3-3-3-3-3-3-3-5-5-5-5-5-5-5-5-7-7-7-7-7-7-7-7-8--|

Guitar 2: [Distortion]
E|----------------------------------------------------------------------------|
B|----------------------------------------------------------------------------|
G|--5-5-5-5-5-5-5-5-7-7-7-7-8-8-8-8-10-10-10-10-10-10-10-12-12-12-12-7-7-7-7--|
D|----------------------------------------------------------------------------|
A|----------------------------------------------------------------------------|
D|----------------------------------------------------------------------------|

E|---------------------------------------------------------------------------------|
B|---------------------------------------------------------------------------------|
G|--5-5-5-5-7-7-7-7-8-8-8-8-10-10-10-10-12-12-12-12-12-12-12-12-7-7-7-7-7-7-7-7-5--|
D|---------------------------------------------------------------------------------|
A|---------------------------------------------------------------------------------|
D|---------------------------------------------------------------------------------|

Guitar 1: [Clean]
E|------------------------------------------------------------------|
B|------------------------------------------------------------------|
G|------------------------------------------------------------------|
D|------8-------8------3-------3-------1-------1-------1-------1----|
A|----8---8---8---8--3---3---3---3---1---1---1---1---1---1---1---1--|
D|--8-------8------3-------3-------1-------1-------1-------1--------|


PRE-CHORUS:
Guitar 1: [Clean] I know what I like...
E|-------------------------------------------------------------------|
B|-------------------------------------------------------------------|
G|-------------------------------------------------------------------|
D|------5-------5-------1-------1-------8-------8-------3-------3----|
A|----5---5---5---5---1---1---1---1---8---8---8---8---3---3---3---3--| [2x]
D|--5-------5-------1-------1-------8-------8-------3-------3--------|

Shes my perfect match.
E|-----------------------------------|
B|-----------------------------------|
G|-----------------------------------|
D|------3-------3---3-3-3-3-3-3-3-3--|
A|----3---3---3---3-3-3-3-3-3-3-3-3--|
D|--3-------3-------3-3-3-3-3-3-3-3--|


CHORUS 3: I got the rhythm; shes got the moves...
Guitar 1: [Distortion]
E|---------------------------------------------------------------|
B|---------------------------------------------------------------|
G|---------------------------------------------------------------|
D|--1---1--1--1--8---8----3--3--3--5---5---1---1--1--1--8---8\---|
A|--1---1--1--1--8---8----3--3--3--5---5---1---1--1--1--8---8\---|
D|--1---1--1--1--8---8----3--3--3--5---5---1---1--1--1--8---8\---|

Guitar 2: [Distortion]
E|-------------------------------------------|
B|-------------------------------------------|
G|------------------------9------------------|
D|--1--1-1-3-8--8---8-5-8---10--1-1--3-8--8--|
A|-------------------------------------------|
D|-------------------------------------------|

Guitar 1: [Distortion]
E|---------------------------------------------------------------------------|
B|---------------------------------------------------------------------------|
G|---------------------------------------------------------------------------|
D|--1---1--1--1--8---8----3--3--3--5---5---1---1--1--1--8---8----3--3--3--3--|
A|--1---1--1--1--8---8----3--3--3--5---5---1---1--1--1--8---8----3--3--3--3--|
D|--1---1--1--1--8---8----3--3--3--5---5---1---1--1--1--8---8----3--3--3--3--|

Guitar 2: [Distortion]
E|------------------------------------------------------------|
B|------------------------------------------------------------|
G|------------------------9-------------------------10-10-----|
D|--1--1-1-3-8--8---8-5-8---10--1-1--3-8--8--8-5-8--------10--|
A|------------------------------------------------------------|
D|------------------------------------------------------------|

E|---------------------------------------------------------|
B|---------------------------------------------------------|
G|---------------------------------------------------------|
D|--1--1-1-3-8--8---8-5-8-13-12-12--1-1--3-8--8--8-5-8-12--|
A|---------------------------------------------------------| 
D|---------------------------------------------------------|

I got the rhythm; shes got the moves...
Guitar 1: [Distortion]
  [Radio Effect]
E|--------------------------------------------------------------------------------|
B|--------------------------------------------------------------------------------|
G|--------------------------------------------------------------------------------|
D|--1---1--1--1--8---8----3--3--3--5---5---1---1--1--1--8---8----3--3--3--3---3---|
A|--1---1--1--1--8---8----3--3--3--5---5---1---1--1--1--8---8----3--3--3--3---3---| 
D|--1---1--1--1--8---8----3--3--3--5---5---1---1--1--1--8---8----3--3--3--3---3---|

E|----------------------------------------------------------------------|
B|----------------------------------------------------------------------|
G|----------------------------------------------------------------------|
D|--1---1--1--1--8---8----3--3--3--5--5---5--5--5---5--5--5---5--5--5---|
A|--1---1--1--1--8---8----3--3--3--5--5---5--5--5---5--5--5---5--5--5---| 
D|--1---1--1--1--8---8----3--3--3--5--5---5--5--5---5--5--5---5--5--5---|

E|---------------------|
B|---------------------|
G|---------------------|
D|--1--1---1--8---8\---|
A|--1--1---1--8---8\---| 
D|--1--1---1--8---8\---|

Guitar 2: [Distortion]
E|------------------------------------------------------------|
B|------------------------------------------------------------|
G|------------------------9-------------------------10-10-----|
D|--1--1-1-3-8--8---8-5-8---10--1-1--3-8--8--8-5-8--------10--|
A|------------------------------------------------------------|
D|------------------------------------------------------------|

E|--------------------------------------------------------------------|
B|--------------------------------------------------------------------|
G|--------------------------------------------------------------------|
D|--1--1-1-3-8--8---8-5-8-13-12-12--12-12--12-12--12-12--1-1--3-8--8--|
A|--------------------------------------------------------------------| 
D|--------------------------------------------------------------------|

E|----------------|
B|----------------|
G|----------------|
D|--1-1--1-8--8\--|
A|----------------|
D|----------------|



End.



Lyrics:
Intro:
I got the rhythm; she’s got the moves,
All tight fits and all the right grooves,
She’ll cut the rug if I cut her loose,
I got the rhythm; she’s got the moves,

Verse 1:
Every sugar rush ends in a crash,
Every week’s got a flavor but it never lasts,
Bad taste, I’m guilty of that,
I know,
Well, I never been a class A act,
I’m an overachiever with my my courtesy last,
But I can fake a mean heart attack,
When I’m loosing control, Oh.

Pre-chorus:
Yeah, I know what I like, 
I know where I stand,
Three steps behind the girl I once had,
I took two steps right,
I got one step left,
She’ll weaken my knees until I can’t stand,

Chorus:
‘Cause I got the rhythm; she’s got the moves,
All tight fits and all the right grooves,
She’ll cut the rug if I cut her loose,
I got the rhythm; she’s got the moves, 

Verse 2:
But she moves on oh so fast,
Slithered on by like a snake in tall grass,
I couldn’t keep up my front 
With no back or wall,
Well, this time it wasn’t an act,
I threw a pity party gave myself a pat on the back,
‘cause pure integrity’s something I lack,
When I’m loosing control, oh. 

Pre-chorus:
Yeah, I know what I like, 
I know where I stand,
I left my mark then she shed that skin,
I took two steps right,
I got one step left,
Shoulda knocked on wood before we shook hands,
Because, I’m breaking down, this is not who I am,
Who walked the water while I sink in quicksand,


Chorus:
I got the rhythm; she’s got the moves,
All tight fits and all the right grooves,
She’ll cut the rug if I cut her loose,
I got the rhythm; she’s got the moves, 

I got the rhythm; she’s got the moves,
All tight fits and all the right grooves,
She’ll cut the rug if I cut her loose,
I got the rhythm; she’s got the moves, 

Bridge:
With her I’m a better man,
Together we make wrong right,
I’ll hold onto her for forever,
If she gave me one last try,
Oo

Pre-chorus:
Yeah, I know what I like, 
I know where I stand,
Three steps behind this girl I wish I had,
I took two steps right,
I got one step left,
To the only one who lights my fire,
She’s my perfect match.

I got the rhythm; she’s got the moves,
I got the rhythm; she’s got the moves,

Chorus:
I got the rhythm; she’s got the moves,
All tight fits and all the right grooves,
She’ll cut the rug if I cut her loose,
I got the rhythm; she’s got the moves, 

I got the rhythm; she’s got the moves,
All tight fits and all the right grooves,
She’ll cut the rug if I cut her loose, oo
I got the rhythm; she’s got the moves, 
I got the rhythm; she’s got the moves,





Comments


Popular Capital Lights tabs & chords
Outrage Bass Tabs
Outrage 1 Bass Tabs
Gotta Have Love Chords
His Favorite Christmas Story Chords
His Favorite Christmas Story 4 Chords
Let The Little Lady Talk Tabs
Miracle Man Tabs
Out Of Control Tabs
Save The Last Dance 2 Tabs
Frank Morris Ukulele


Song lyrics



↑ Back to top | Tablatures and chords are parodies/interpretations of the original songs. You may use it for private study, scholarship, research or language learning purposes only
© 2014 AZChords.com Contact us | Privacy policy | DMCA | Add/correct tabs | Request tabs | Top 50 tabs