» » »

Capital Lights, Return Tabs (ver.1)

Artists:  A B C D E F G H I J K L M N O P Q R S T U V W X Y Z # 

Return Tabs (ver.1)

Capital Lights Tabs
Rating:
0/5 (0 votes)
Return lessons Tabs too difficult? Try these video lessons and learn fast
                capital lights
return
tuning drop D
intro x2
E|-----------------------------------------------------------|
B|-----------------------------------------------------------|
G|-----------------------------------------------------------|
D|--0000-0000-0000-0000-5555-5555-7777-7777------------------|
A|--0000-0000-0000-0000-5555-5555-7777-7777------------------|
D|--0000-0000-0000-0000-5555-5555-7777-7777------------------|

verse

E|-----------------------------------------------------------|
B|-----------------------------------------------------------|
G|-----------------------------------------------------------|
D|--9999-9999-9999-9999--5555-5555-4444-4444-----------------|
A|--9999-9999-9999-9999--5555-5555-4444-4444-----------------|
D|--9999-9999-9999-9999--5555-5555-4444-4444-----------------|

pre chorus

E|------------------------------------------------|
B|------------------------------------------------|
G|-------------------------------------9-9-9-9-9-9|
D|--5555-5555-5555-5555-7777-7777-7777-x-x-x-x-x-x|
A|--5555-5555-5555-5555-7777-7777-7777-7-7-7-7-7-7|
D|--5555-5555-5555-5555-7777-7777-7777------------|

chorus x2

E|-----------------------------------------------------------|
B|-----------------------------------------------------------|
G|-----------------------------------------------------------|
D|--0--7--9--7---5-------------------------------------------|
A|--0--7--9--7---5-------------------------------------------|
D|--0--7--9--7---5-------------------------------------------|
   x8 x4  x8 x4 x4

intro x2

verse

prechorus

chorus

bridge

no guitar untill this comes into


E|-----------------------------------------------------------|
B|-----------------------------------------------------------|
G|-------------11--11--11--11--11---14--14--14--14--14-------|
D|-9-----------x---x---x---x---x----x---x---x---x---x--------|
A|-9-----------9---9---9---9---9----12--12--12--12--12-------|
D|-9---------------------------------------------------------|
   x32

chorus

intro
end
            
Submit corrections

comments powered by Disqus
↑ Back to top | Capital Lights Tabs for Return. Lyrics for acoustic guitar and electric guitar. Tablatures and chords are parodies/interpretations of the original songs. You may use it for private study, scholarship, research or language learning purposes only