» » »

Capital Lights, Remember The Day Tabs (ver.2)

Artists:  A B C D E F G H I J K L M N O P Q R S T U V W X Y Z # 

Remember The Day Tabs (ver.2)

Capital Lights Tabs
 Rating:
4/5 (5 votes)
Remember The Day lessons Tabs too difficult? Try these video lessons and learn fast
                band: Capital Lights
Tuning:Drop D

intro x2
E|-----------------------------------------------------------|
B|-----------------------------------------------------------|
G|-----------------------------------------------------------|
D|---0000-7777-9999------------------------------------------|
A|---0000-7777-9999------------------------------------------|
D|---0000-7777-9999------------------------------------------|

verse x4
E|-----------------------------------------------------------|
B|-----------------------------------------------------------|
G|-2-2-2-2-2-2-2-2----7-7-7-7-9-9-9-9------------------------|
D|0-0-0-0-0-0-0-0----5-5-5-5-7-7-7-7-------------------------|
A|-----------------------------------------------------------|
D|-----------------------------------------------------------|
pre chorus
E|-----------------------------------------------------------|
B|-----------------------------------------------------------|
G|-----------------------------------------------------------|
D|-0~~~---------------77-77----------------------------------|
A|-0~~~---------------77-77----------------------------------|
D|-0~~~---------------77-77----------------------------------|

repeat chorus 4x

verse2 x4
E|-----------------------------------------------------------|
B|-----------------------------------------------------------|
G|-2----7----9-----------------------------------------------|
D|-0----5----7-----------------------------------------------|
A|-----------------------------------------------------------|
D|-----------------------------------------------------------|
  x8   x4   x4

pre chorus

chrous x4
bridge
E|-----------------------------------------------------------|
B|-----------------------------------------------------------|
G|-----------------------------------------------------------|
D|--77777777~~~-------0000-5555------------------------------|
A|--77777777~~~-------0000-5555------------------------------|
D|--77777777~~~-------0000-5555------------------------------|

back to chorus and repeat till the end 
            
Submit corrections

comments powered by Disqus
↑ Back to top | Capital Lights Tabs for Remember The Day. Lyrics for acoustic guitar and electric guitar. Tablatures and chords are parodies/interpretations of the original songs. You may use it for private study, scholarship, research or language learning purposes only