>
 >
Remember The Day

Remember The Day Guitar Tabs

Capital Lights - Remember The Day chords, tabs, tablatures, lyrics

Guitar lessons | Add/correct | Request | Top 50 tabs Artists:  A B C D E F G H I J K L M N O P Q R S T U V W X Y Z 0-9

Remember The Day Guitar Tabs – Capital Lights

CD, Sheet music, Poster

Do you like Remember The Day? Share with your friends now
TabsTabs v2
Length: 3:30
Tuning: Drop D

Hi. I think this is right, yeah. Guitar 1 in the verses sounds a little strange but if 
listen closely you will hear that that is how it goes. Have fun!

Intro
Guitar 1 (0:00) x2
e|-------------|-------------|-------------|------------------|
B|-------------|-------------|-------------|----------10------|
G|----7--7--7--|----9--9--9--|----7--7--7--|----6s7------7-6--|
D|--0---0--0---|--7---7--7---|--0---0--0---|--0-----0---------|
A|-------------|-------------|-------------|------------------|
D|-------------|-------------|-------------|------------------|

Guitar 2 (0:00) x2
e|---------------|---------------|---------------|---------------|
B|---------------|---------------|---------------|---------------|
G|---------------|---------------|---------------|---------------|
D|--0-0-0-0/0/0--|--7-7-7/7/7/7--|--4-4-4/4/4/4--|--5-5-5/5/5/5--|
A|--0-0-0/0/0/0--|--7-7-7/7/7/7--|--5-5-5/5/5/5--|--5-5-5/5/5/5--|
D|--0-0-0/0/0/0--|--7-7-7/7/7/7--|--4-4-4/4/4/4--|--5-5-5/5/5/5--|

Verse
Guitar 1 (0:13) x4
e|-------------------|--------------------|
B|-------------------|---3-3-3-3-3-3-3-3--|
G|--2-2-2-2-2-2-2-2--|--0-0-0-0-0-0-0-0---|
D|-0-0-0-0-0-0-0-0---|--------------------|
A|-------------------|--------------------|
D|-------------------|--------------------|

Guitar 2 (0:13) x4
e|------|----------|
B|------|----------|
G|------|----------|
D|--0~--|--5~--7~--|
A|--0~--|--5~--7~--|
D|--0~--|--5~--7~--|

Pre-chorus
Guitar 2
e|------|---------|
B|------|---------|
G|------|--2-2-2--|
D|--0~--|--2-2-2--|
A|--0~--|--0-0-0--|
D|--0~--|---------|
Chorus
Guitar 1 (0:47) x2
e|-------------|-------------|-------------|-------------|
B|-------------|-------------|-------------|-------------|
G|----7--7--7--|----9--9--9--|----7--7--7--|----7--7--7--|
D|--0---0--0---|--7---7--7---|--4---4--4---|--5---5--5---|
A|-------------|-------------|-------------|-------------|
D|-------------|-------------|-------------|-------------|

Guitar 2 (0:47) x2
e|---------------|---------------|---------------|---------------|
B|---------------|---------------|---------------|---------------|
G|---------------|---------------|---------------|---------------|
D|--0-0-0/0/0/0--|--7-7-7/7/7/7--|--4-4-4/4/4/4--|--5-5-5/5/5/5--|
A|--0-0-0/0/0/0--|--7-7-7/7/7/7--|--5-5-5/5/5/5--|--5-5-5/5/5/5--|
D|--0-0-0/0/0/0--|--7-7-7/7/7/7--|--4-4-4/4/4/4--|--5-5-5/5/5/5--|

Post-chorus
Guitar 2 (1:00)
e|------|-------|
B|------|-------|
G|------|--2-2--|
D|--0~--|--2-2--|
A|--0~--|--0-0--|
D|--0~--|-------|

Verse
Repeat Guitar 1 (1:04) x4
Guitar 2 (1:04) x4
e|-------------------|-------------------|
B|-------------------|-------------------|
G|-------------------|-------------------|
D|--0-0-0-0-0-0-0-0--|--5-5-5-5-7-7-7-7--|
A|--0-0-0-0-0-0-0-0--|--5-5-5-5-7-7-7-7--|
D|-------------------|-------------------|
    * * * * * * * *     * * * * * * * *

Pre-chorus
Guitar 2 (1:31)
e|------|------------|
B|------|------------|
G|------|--2-2--2-2--|
D|--0~--|--2-2--2-2--|
A|--0~--|--0-0--0-0--|
D|--0~--|------------|

Repeat Chorus (1:38)

Bridge
Guitar 1 (2:05)
e|-------------|-------------|-------------|----------------|
B|-------------|-------------|-------------|----------------|
G|----9--9--9--|----9--9--9--|----7--7--7--|----9--9--9-9~--|
D|--7---7--7---|--7---7--7---|--0---0--0---|--7---7--7--7~--|
A|-------------|-------------|-------------|----------------|
D|-------------|-------------|-------------|----------------|

Guitar 2 (2:05)
e|---------------|---------------|---------------|---------------|------|
B|---------------|---------------|---------------|---------------|------|
G|---------------|---------------|---------------|---------------|------|
D|--7-7-7/7/7/7--|--7-7-7/7/7/7--|--0-0-0/0/0/0--|--5-5-5/5/5/5--|--7~--|
A|--7-7-7/7/7/7--|--7-7-7/7/7/7--|--0-0-0/0/0/0--|--5-5-5/5/5/5--|--7~--|
D|--7-7-7/7/7/7--|--7-7-7/7/7/7--|--0-0-0/0/0/0--|--5-5-5/5/5/5--|--7~--|

Guitar 1 (2:15)
e|-------------|----------------|
B|-------------|----------------|
G|----7--7--7--|----9--9--9-9~--|
D|--0---0--0---|--7---7--7--7~--|
A|-------------|----------------|
D|-------------|----------------|

Guitar 2 (2:15)
e|---------------|---------------|------|
B|---------------|---------------|------|
G|---------------|---------------|------|
D|--0-0-0/0/0/0--|--5-5-5/5/5/5--|--7~--|
A|--0-0-0/0/0/0--|--5-5-5/5/5/5--|--7~--|
D|--0-0-0/0/0/0--|--5-5-5/5/5/5--|--7~--|

Guitar 1 (2:32)
e|--17--14--10~--|
B|---------------|
G|---------------|
D|---------------|
A|---------------|
D|---------------|

Guitar 2 (2:32)
e|-----|------|--------|
B|-----|------|--------|
G|--7--|--10--|--7-6~--|
D|--7--|--12--|--7-----|
A|--5--|--9---|--5-----|
D|-----|------|--------|

Guitar 1 (2:42)
e|---------------|
B|--8-----8s10~--|
G|----7----------|
D|------5--------|
A|---------------|
D|---------------|

Guitar 2 (2:42)
e|-------------|-------------|
B|-------------|-------------|
G|-------------|-------------|
D|--4-4/4/4/4--|--5-5/5/5/5--|
A|--5-5/5/5/5--|--5-5/5/5/5--|
D|--4-4/4/4/4--|--5-5/5/5/5--|

Chorus
Repeat Guitar 2 (2:45) x3
Guitar 1 (2:45) x3
e|--10----------|--10-------|
B|--------------|-----------|
G|-----7---7s9--|-----7-----|
D|-------7------|-------7~--|
A|--------------|-----------|
D|--------------|-----------|

Outro
Guitar 2 Repeat Chorus (3:12) x2
Guitar 1 (3:12) x2
e|--10----------|--10-------------------|
B|--------------|---------------10------|
G|-----7---7s9--|-----7---6s7------7-6--|
D|-------7------|-------7------0--------|
A|--------------|-----------------------|
D|--------------|-----------------------|

Guitar 2 End on
e|------|
B|------|
G|------|
D|--0~--|
A|--0~--|
D|--0~--|

Key:
Palm Mute  *
Dead Note  x
Slide            s
Bend            b
Let Ring      ~





Comments


Popular Capital Lights tabs & chords
Outrage Bass Tabs
Outrage 1 Bass Tabs
Frank Morris Chords
His Favorite Christmas Story Chords
Let The Little Lady Talk Chords
Miracle Man Tabs
Outrage Intro Tabs
Return Tabs
Save The Last Dance 2 Tabs
Gotta Have Love Ukulele


Song lyrics



↑ Back to top | Tablatures and chords are parodies/interpretations of the original songs. You may use it for private study, scholarship, research or language learning purposes only
© 2014 AZChords.com Contact us | Privacy policy | DMCA | Add/correct tabs | Request tabs | Top 50 tabs