» » »

Capital Lights, Miracle Man Tabs (ver.1)

Artists:  A B C D E F G H I J K L M N O P Q R S T U V W X Y Z # 

Miracle Man Tabs (ver.1)

Capital Lights Tabs
 Rating:
3.7/5 (6 votes)
Miracle Man lessons Tabs too difficult? Try these video lessons and learn fast
1
                band:capital lights
tuning:drop d
intro
E|-----------------------------------------------------------|
B|-----------------------------------------------------------|
G|-7---------------------------------------------------------|
D|-7----------7777-5555--------------------------------------|
A|-5----------7777-5555--------------------------------------|
D|------------7777-5555--------------------------------------|
pm x8
verse palm muted 
E|-----------------------------------------------------------|
B|-----------------------------------------------------------|
G|-----------------------------------------------------------|
D|--00000000-------7777-5555---------------------------------|
A|--00000000-------7777-5555---------------------------------|
D|--00000000-------7777-5555---------------------------------|
pre chorus
E|-----------------------------------------------------------|
B|-----------------------------------------------------------|
G|-----------------------------------------------------------|
D|---9999----5555-0000--7777-9999--5555--7777----------------|
A|---9999----5555-0000--7777-9999--5555--7777----------------|
D|---9999----5555-0000--7777-9999--5555--7777----------------|

E|-----------------------------------------------------------|
B|-----------------------------------------------------------|
G|-11-11-11-9------------------------------------------------|
D|--x-x--x--x------------------------------------------------|
A|--9-9--9--7------------------------------------------------|
D|-----------------------------------------------------------| 
chorus x 4
E|-----------------------------------------------------------|
B|-----------------------------------------------------------|
G|-----------------------------------------------------------|
D|--0000-5555-0000-7777--------------------------------------|
A|--0000-5555-0000-7777--------------------------------------|
D|--0000-5555-0000-7777--------------------------------------|
post chorus
E|-----------------------------------------------------------|
B|-----------------------------------------------------------|
G|-----------------------------------------------------------|
D|--0000-2222-5555-7777--------------------------------------|
A|--0000-2222-5555-7777--------------------------------------|
D|--0000-2222-5555-7777--------------------------------------|

verse x2
pre chorus
E|-----------------------------------------------------------|
B|-----------------------------------------------------------|
G|-----------------------------------------------------------|
D|-9-9-9-9-5-5-5-5-0-0-0-0-7-7-7-7-9-9-9-9-5-5-5-5-7-7-7-7---|
A|-9-9-9-9-5-5-5-5-0-0-0-0-7-7-7-7-9-9-9-9-5-5-5-5-7-7-7-7---|
D|-9-9-9-9-5-5-5-5-0-0-0-0-7-7-7-7-9-9-9-9-5-5-5-5-7-7-7-7---|

chorus x 4
bridge
E|-----------------------------------------------------------|
B|-----------------------------------------------------------|
G|-----------------------------77-99-------------------------|
D|--44444444-55555555-77777777-xx-xx-------------------------|
A|--44444444-55555555-77777777-55-77-------------------------|
D|--44444444-55555555-77777777-------------------------------|

solo
    14        12     11
E|-----------------------------------------------------------|
B|-----------------------------------------------------------|
G|-14141414-12121212-11-11-12-9-14141414-12121212-14141414---|
D|-----------------------------------------------------------|
A|-----------------------------------------------------------|
D|-----------------------------------------------------------|

repeat chorus 4 x end with post chorus
            
Submit corrections

comments powered by Disqus
↑ Back to top | Capital Lights Tabs for Miracle Man. Lyrics for acoustic guitar and electric guitar. 1 Tablatures and chords are parodies/interpretations of the original songs. You may use it for private study, scholarship, research or language learning purposes only