» » »

Let The Little Lady Talk Tabs (ver.1)

Artists:  A B C D E F G H I J K L M N O P Q R S T U V W X Y Z # 

Let The Little Lady Talk Tabs (ver.1)

Capital Lights
Rating:
0/5 (0 votes)

Hard to play? Try these video lessons and learn fast.
                Length: 4:09

Hey all, I think this is right, please rate and leave comments.

Intro
Guitar 2 (0:00)
e|---------------------|-----------------|
B|---------------------|-----------------|
G|---------------------|-----------------|
D|--9-9-9-9-5-5-4-4-0--|--9-9-9-9-5-5-4--|
A|--9-9-9-9-5-5-4-4-0--|--9-9-9-9-5-5-4--|
E|--9-9-9-9-5-5-4-4-0--|--9-9-9-9-5-5-4--|

Guitar 1 (0:12) x2
e|---------------------|----------------|
B|--7-7--7-5-5-7-5-----|--7-7~--5-------|
G|-----------------7~--|----------7-6~--|
D|---------------------|----------------|
A|---------------------|----------------|
E|---------------------|----------------|

Guitar 2 (0:00)
e|---------------------|---------------------|
B|---------------------|---------------------|
G|---------------------|---------------------|
D|--9-9-9-9-5-5-4-4-0--|--9-9-9-9-5-5-4-4-0--|
A|--9-9-9-9-5-5-4-4-0--|--9-9-9-9-5-5-4-4-0--|
E|--9-9-9-9-5-5-4-4-0--|--9-9-9-9-5-5-4-4-0--|

Verse
Guitar 2 (0:23)
e|-------|
B|-------|
G|-------|
D|--9-9--|
A|--9-9--|
E|--9-9--|

Guitar 1 (0:24 x3 
e|-------------------------|-----------------------------|
B|-------------------------|-----------------------------|
G|--4-44-44-44-44-44-44-4--|--7-77-77-77-7-9-99-99-99-9--|
D|-------------------------|-----------------------------|
A|-------------------------|-----------------------------|
E|-------------------------|-----------------------------|
    * ** ** ** ** ** ** *     * ** ** ** * * ** ** ** *



Pre-Chorus
Guitar 2 (0:47)
e|-----------|-----|
B|-----------|-----|
G|-----------|-----|
D|--12~--7~--|--7--|
A|--12~--7~--|--7--|
E|--12~--7~--|--7--|
Chorus
Guitar 2 (0:53) x4
e|-----------|-------------|
B|-----------|-------------|
G|-----------|-------------|
D|--9-9-9-9--|--5-5-4-4-0--|
A|--9-9-9-9--|--5-5-4-4-0--|
E|--9-9-9-9--|--5-5-4-4-0--|

Guitar 1 (0:53) x4 
e|-------------------------|-----------------------------|
B|-------------------------|-----------------------------|
G|--4-44-44-44-44-44-44-4--|--7-77-77-77-7-9-99-99-99-9--|
D|-------------------------|-----------------------------|
A|-------------------------|-----------------------------|
E|-------------------------|-----------------------------|
    * ** ** ** ** ** ** *     * ** ** ** * * ** ** ** *

Repeat Verse

Repeat Pre-Chorus

Repeat Chorus 

Bridge
Guitar 2 (2:15) x3
e|-------------------|-------------------|
B|-------------------|-------------------|
G|-------------------|-------------------|
D|--2-2-2-2-2-2-2-2--|--9-9-9-9-9-9-9-9--|
A|--2-2-2-2-2-2-2-2--|--9-9-9-9-9-9-9-9--|
E|--2-2-2-2-2-2-2-2--|--9-9-9-9-9-9-9-9--|

Guitar 2 (2:33)
e|-------------------|-------------------|------|
B|-------------------|-------------------|------|
G|-------------------|-------------------|--7~--|
D|--5-5-5-5-5-5-5-5--|--7-7-7-7-7-7-7-7--|--7~--|
A|--5 5-5-5-5-5-5-5--|--7-7-7-7-7-7-7-7--|--5~--|
E|--5-5-5-5-5-5-5-5--|--7-7-7-7-7-7-7-7--|------|
   

Guitar 1 (2:45) x3
e|---------------------|----------------|
B|--7-7--7-5-5-7-5-----|--7-7~--5-------|
G|-----------------7~--|----------7-6~--|
D|---------------------|----------------|
A|---------------------|----------------|
E|---------------------|----------------|


Guitar 1 Continued (3:02) 
e|--------------------|
B|--7-7--7-5-5-7-5----|
G|-----------------7--|
D|--------------------|
A|--------------------|
E|--------------------|

Chorus
Guitar 2 (2:56) x4
e|-------|-----------|-------------|
B|-------|-----------|-------------|
G|-------|-----------|-------------|
D|--4-0--|--9-9-9-9--|--5-5-4-4-0--|
A|--4-0--|--9-9-9-9--|--5-5-4-4-0--|
E|--4-0--|--9-9-9-9--|--5-5-4-4-0--|

Guitar 2 Continued (3:02)
e|-----------|
B|-----------|
G|-----------|
D|--9-9-9-9--|
A|--9-9-9-9--|
E|--9-9-9-9--|

Chorus
Guitar 1 (3:13) 
e|-------------|--------------------------|--------------------------|
B|-------------|--------------------------|--------------------------|
G|---7-77b8r7--|--------------------------|--------------------------|
D|-------------|--4-44-44-44-44-44-44-44--|--7-77-77-77-7-9-99-99-9--|
A|-------------|--------------------------|--------------------------|
E|-------------|--------------------------|--------------------------|
                  * ** ** ** ** ** ** **     * ** ** ** * * ** ** *  

Chorus
Guitar 2 (3:21) 
e|-------|-------------|
B|-------|-------------|
G|-------|-------------|
D|--9-9--|--5-5-4-4-0--|
A|--9-9--|--5-5-4-4-0--|
E|--9-9--|--5-5-4-4-0--|

Repeat Chorus x4

Outro
Guitar 1
e|-----------------|---------------|
B|-----------------|---------------|
G|---------7-------|-------7-------|
D|--4-44-4-4-44-4--|--44-4-4-44-4--|
A|-----------------|---------------|
E|-----------------|---------------|

Key:
*    Palm Mute
b   Bend
r    Return
~   Let Ring   


   
            
Hard to play? Try these video lessons and learn fast. | Correct




comments powered by Disqus
↑ Back to top | Tablatures and chords are parodies/interpretations of the original songs. You may use it for private study, scholarship, research or language learning purposes only