» » »

Capital Lights, Coldfront Heatstroke Chords (ver.1)

Artists:  A B C D E F G H I J K L M N O P Q R S T U V W X Y Z # 

Coldfront Heatstroke Chords (ver.1)

Capital Lights Tabs
 Rating:
4/5 (4 votes)
Coldfront Heatstroke lessons Tabs too difficult? Try these video lessons and learn fast
                
Band: Capital Lights
Tuning: Standard (E,A,D,G,B,E)

Chords:

   C#  A   B   E       F#
E|-0---0---0---0---x---|
B|-0---0---0---0---x---|
G|-6---2---4---9---3---|
D|-6---2---4---9---4---|
A|-4---0---2---7---4---|
E|-x---x---x---0---2---|


Intro: C#, A, B, B,

Verse 1:
  C#                   A   
I got a girl she’s the talk of the town
               B                            B
I’m scared of wavering but she’s scared of settling down
      C#                           A                              B
We’re one of a kind but there’s a catch I caught through the grapevine
                B                   C#                B
That she’s everything I’m not, no
 C#              A
She’s a pro and I’m a convict 
     B                   B            
Caught red handed trying to hold on
   C#                   A 
I got a loose hand cant get a grip
           B                         B
She’s on a power trip tripping on my weakness


Pre-chorus:  
 A                         B
Can’t stand still when I’m lighter then air
           C#                 B             
She better bid farewell there goner with the wind
A            B                       A
Hmm I know a girl like that when I’m in she’s out
                       B
And when I’m out she’s in


Chorus:
E                 B
She’s a coldfront giving me a heatstroke
C#               A           B
She’s a hit song ending on a weak note
A       C#         B
I go high she goes low
       A          B  
It’s a long rollercoaster ride
E                   B
She’s a saint with a smile on a Sunday
C#              A         B
Going out getting wild on a Monday
E       C#          A
Took two weeks to say hello
            A       B
Now I’m too weak to say goodbye

C#, A, B, B,


Verse 2: [Same as verse 1]
She was honey and I’m a bee
I started dying away when I was forced to sting
Buzzing around with no hope to heal
Until I dropped like a fly yeah she’s a true buzz kill


Pre-chorus:  
 A                         B
Can’t stand still when I’m lighter then air
           C#                    B             
You better bid farewell or I’m a goner with the wind
A          B                         
Hmm am I a guy like that
      A                      B
It’s easier said then making right ends meet in the end


Chorus:
E                 B
She’s a coldfront giving me a heatstroke
C#               A           B
She’s a hit song ending on a weak note
A       C#         B
I go high she goes low
       A          B  
It’s a long rollercoaster ride
E                   B
She’s a saint with a smile on a Sunday
C#              A         B
Going out getting wild on a Monday
E       C#          A
Took two weeks to say hello
            A       B
Now I’m too weak to say goodbye


Bridge:
F#                         A
I tried holding her close, she said she just needed more time
F#             A
So I let her go, suddenly I was the bad guy
F#                       A
I think it’s all just a game, she’s playing with my mind
F#                    A                  B            
Like a soap opera twist left me confused like

E|--0----0----------0---------0-----------0-----|
B|--0-------0----------0---------0-----------0--|
G|--1-------------------------------------------|
D|--2--2----------2---------2----------2--------|
A|--2----------2---------2----------2-----------|
E|--0-------------------------------------------|
    She forgot her lines in a scene that she wrote

E|-------0----------0---------0-----------0-----|
B|----------0----------0---------0-----------0--|
G|----------------------------------------------|
D|-----2----------2---------2----------2--------|
A|--0----------0---------0----------0-----------|
E|----------------------------------------------|
    Plays an evil villain, calls herself a hero 

E|-------0----------0---------0-----------0-----|
B|----------0----------0---------0-----------0--|
G|----------------------------------------------|
D|-----4----------4---------4----------4--------|
A|--2----------2---------2----------2-----------|
E|----------------------------------------------|
   She feels secure and sound and I,

E|-------0----------0---------0-----0--|
B|----------0----------0---------0--0--|
G|----------------------------------2--|
D|-----2----------2---------2-------2--|
A|--0----------0---------0----------0--|
E|----------------------------------x--|
    Feel like I’m losing my mind!


Chorus:
E                 B
She’s a coldfront giving me a heatstroke
C#               A           B
She’s a hit song ending on a weak note
A       C#         B
I go high she goes low
       A          B  
It’s a long rollercoaster ride
E                   B
She’s a saint with a smile on a Sunday
C#              A         B
Going out getting wild on a Monday
E       C#          A
Took two weeks to say hello
            A       B
Now I’m too weak to say goodbye


Outro:
E, B, C#          A       B
oo------, I’m too week to say goodbye
E, B, A                   B          E
oo------, I’m too week to say goodbye


End.
            
Submit corrections

comments powered by Disqus
↑ Back to top | Capital Lights Chords for Coldfront Heatstroke. Lyrics for acoustic guitar and electric guitar. Tablatures and chords are parodies/interpretations of the original songs. You may use it for private study, scholarship, research or language learning purposes only