» » »

Veraneio Vascaina Bass tabs (ver.1)

Artists:  A B C D E F G H I J K L M N O P Q R S T U V W X Y Z # 

Veraneio Vascaina Bass tabs (ver.1)

Capital Inicial
Rating:
0/5 (0 votes)

Hard to play? Try these video lessons and learn fast.
                Capital Inicial
"Veraneio Vascaína"

Intro: 
G-----------------------
D-----------------------
A---2-2-2-0-3-3-2-2-2---
E-----------------------

Riff 1: 
G---------------------
D---------------------
A---2-2-3-3-0-0-2-2---
E---------------------

Riff 2: 
G---------------------
D---2-2-3-3-0-0-2-2---
A---------------------
E---------------------

Refrão: 
G-------------------------------------
D-------------------------------------
A-------------------0-0-0-0-2-2-2-2---
E---0-0-0-0-3-3-3-3-------------------

Riff 3:
G---------------------
D---2-2-3-3-0-0-------
A---------------2-2---
E---------------------

Música:

Intro: 4x
Riff 1: 2x
Riff 2: 1x
Riff 1: 1x
Refrão: 1x

Intro: 4x
Riff 1: 2x
Riff 2: 1x
Riff 1: 1x
Intro: 4x

Riff 1: 2x
Riff 2: 1x
Riff 3: 1x
Riff 1: 1x
Intro: 3x

Riff 1: 2x
Riff 2: 1x
Riff 1: 1x
Refrão: 3x
            
Hard to play? Try these video lessons and learn fast. | Correct




comments powered by Disqus
↑ Back to top | Tablatures and chords are parodies/interpretations of the original songs. You may use it for private study, scholarship, research or language learning purposes only