» » »

Musica Urbana Bass tabs (ver.1)

Artists:  A B C D E F G H I J K L M N O P Q R S T U V W X Y Z # 

Musica Urbana Bass tabs (ver.1)

Capital Inicial
Rating:
0/5 (0 votes)

Hard to play? Try these video lessons and learn fast.
                Tablatura de Ricardo M Mourão



INTRO :
G-------------------------------------------
D-------------------------------------------
A-------------------3-3--5-5----------------     
E---3-3-3-3-3-3-3-3-------------------------

RIFF 2:
G--------------------------------------------
D--------------------------------------------
A--------------------------------------------
E---5-5-5-5--3-3-3-3--5-5-5-5--3-3-3-3-------

RIFF3:
G:------------------------------------
D-------------------------------------
A--------------3----------------------
E--5-5-5-5-55-----5-5-5-5-55---3------
            
Hard to play? Try these video lessons and learn fast. | Correct




comments powered by Disqus
↑ Back to top | Tablatures and chords are parodies/interpretations of the original songs. You may use it for private study, scholarship, research or language learning purposes only