» » »

Capital Inicial, A Sua Maneira Chords (ver.1)

Artists:  A B C D E F G H I J K L M N O P Q R S T U V W X Y Z # 

A Sua Maneira Chords (ver.1)

Capital Inicial Tabs
 Rating:
4.2/5 (5 votes)
A Sua Maneira lessons Tabs too difficult? Try these video lessons and learn fast
1
                Tom: D
                
(intro 4x) Bm G D A

 Bm        G D    A               Bm    G D A
Ela dormiu    no calor dos meus braços
 Bm            G   D        A        Bm  G D A
E eu acordei sem saber se era um sonho
 Bm              G D     A            Bm  G D A
Algum tempo atrás     pensei em te dizer
Bm              G D            A            Bm  G D A
Que eu nunca cai nas suas armadilhas de amor
Bm           G D    A      Bm   G D A
Naquele amor    a sua maneira
Bm                 G D    A       Bm   G D A
Perdendo meu tempo   a noite inteira

( Bm G D A ) (2x)

(solo)

E|-------------------------------------------------------------------------------------------------|
B|-------------------------------------------------------------------------------------------------|
G|----------------------------------------------------7-7-7-7-7-----7-7------------7--------7-7-7-7|
D|-------------------------------------------------9--7-7-7-7-7-----7-7------------7--------7-7-7-7|
A|2-2-4-4/5--5-5-4-2-0----2-0h2p0--2-2-4-4/5-7/9-9--9-----------7/9-----(9)-(9)-7/9--(9)-(9)-------|
E|--------------------2-5--------------------------------------------------------------------------|

E|----------------------------|
B|----------------------------|
G|----------------------------|
D|----------------------------|
A|7h9-7-7h9-7-5-4-2--|
E|----------------------------|


Bm           G D   A         Bm  G D A
Não mandarei   cinzas de rosas
Bm                  G D     A       Bm    G D A
Nem penso em contar   os nossos segredos
Bm           G D   A      Bm   G D A
Naquele amor   a sua maneira
Bm                 G D    A     Bm    G D A
Perdendo meu tempo   a noite inteira

(solo 2)

E|-------------------------------------------------------------------------------------------------|
B|-10/12---10---12---10---12---10-----------------------------15h17-17-15-15h17-17-15-15-14h15-14--|
G|------11---11---11---11---11----7/9-7--7/9-7--7-6/7-6/4p0--------------------------------------14|
D|-------------------------------------------------------------------------------------------------|
A|-------------------------------------------------------------------------------------------------|
E|-------------------------------------------------------------------------------------------------|

E|-----------------------------------------------------------------------------|
B|-----------------------------------------------------------------------------|
G|-14/16-16-16-16/11-11-11-11/14-14-14-14/9-9-9-9/11-11-11-11/6-6-6-6/7-6/4-4--|
D|-----------------------------------------------------------------------------|
A|-----------------------------------------------------------------------------|
E|-----------------------------------------------------------------------------|


Bm       G D       A             Bm    G D A
Ela dormiu    no calor dos meus braços
 Bm            G   D        A        Bm  G D A
E eu acordei sem saber se era um sonho
 Bm               G D     A            Bm  G D A
Algum tempo atrás     pensei em te dizer
Bm              G D         A              Bm  G D A
Que eu nunca cai nas suas armadilhas de amor
Bm           G D    A      Bm   G D A
Naquele amor    a sua maneira
Bm                 G D    A       Bm   G D A
Perdendo meu tempo   a noite inteira
           Bm   G D A
A noite inteira
           Bm   G D A
A noite inteira
           Bm  G D A
A noite inteira
           Bm   G D A
A noite inteira
Bm
Ela dormiu no calor dos meus braços...
            
Submit corrections

comments powered by Disqus
↑ Back to top | Capital Inicial Chords for A Sua Maneira. Lyrics for acoustic guitar and electric guitar. 1 Tablatures and chords are parodies/interpretations of the original songs. You may use it for private study, scholarship, research or language learning purposes only