>
 >
What Doesn't Kill You

What Doesn't Kill You Bass Tabs

Capdown - What Doesn't Kill You chords, tabs, tablatures, lyrics

Guitar lessons | Add/correct | Request | Top 50 tabs Artists:  A B C D E F G H I J K L M N O P Q R S T U V W X Y Z 0-9

What Doesn't Kill You Bass Tabs – Capdown

CD, Sheet music, Poster

Do you like What Doesn't Kill You? Share with your friends now
Bass Tabs
Band: Capdown
. = dead note

Intro:
G|------------------|------------------|------------------|------------------|
D|------------------|------------------|------------------|------------------|
A|------------------|------------------|-33-333-3---------|------------------|
E|------------------|-44-444-444-444-4-|---------11-111-1-|-44-444-444-444-4-|

G|------------------|------------------|------------------|------------------|
D|------------------|------------------|------------------|------------------|
A|---------44-444-4-|------------------|---------44-444-4-|------------------|
E|-11-111-1---------|-44-444-444-444-4-|-11-111-1---------|-44-444-433-333-3-|

Verse: 
G|------------------|------------------|  |------------------|------------------|
D|------------------|------------------|  |------------------|------------------|
A|-8866446688664466-|-8866446644443333-|  |-8866446688664466-|-8866446644.-33.--|
E|------------------|------------------|x3|------------------|------------------|

Pre-chorus: 
G|------------------|------------------|
D|------------------|------------------|
A|-33-333-3---------|------------------|
E|---------11-111-1-|-44-444-444-444-4-|x2

Chorus: Listen really carefull
G|------------------|------------------|------------------|------------------|
D|-----31------64---|------------------|------------------|------------------|
A|-------3-44-4--6--|------------------|---------44-444-4-|------------------|
E|-11-1-------------|-44-44/8844-44/88-|-11-111-1---------|-44-444-47~------|

Pre-chorus
Chorus
Guitar fill
G|------------------|------------------|------------------|------------------|
D|------------------|------------------|------------------|------------------|
A|------------------|---------44.-33.--|-8866446688664466-|-8866446644.-33.--|
E|------------------|------------------|------------------|------------------|

Pre-chorus
Chorus
Bridge:
G|------------------|  |------------------|  |------------------|
D|-----986-----986--|  |------------------|  |------------------|
A|-88-8----66-6-----|  |-88-8-----666-----|  |-88-8-----6~------|
E|------------------|x4|-----764-----764--|x7|-----764----------|

Bridge 2:
G|------------------|------------------|------------------|-8-8-8-8----------|
D|------------------|-6-6-6-6----------|------------------|-6-6-6-6----------|
A|-8-8-8-8-8-8-8-8--|---------7-7-7-7--|-8-8-8-8-8-8-8-8--|---------7-7-7-7--|
E|------------------|------------------|------------------|------------------|

G|------------------|------------------|------------------|------------------|
D|------------------|------------------|------------------|------------------|
A|------------------|------------------|------------------|-6-6-6-6----------|
E|-1-1-1-1-1-1-1-1--|-4-4-4-4-0-0-0-0--|-1-1-1-1-1-1-1-1--|-4-4-4-4-0-0-0-0--|

G|------------------|------------------|------------------|------------------|
D|------------------|------------------|------------------|------------------|
A|------------------|------------------|------------------|------------------|
E|-1-1-1-1-1-1-1-1--|-4-4-4-4-0-0-0-0--|-1-1-1-1-1-1-1-1--|-4-4-4-4-77777.---|

Pre-chorus x2
Pre-chorus variatie
G|-----55-5---------|------------------|------------------|------------------|
D|-------------33-3-|------------------|------------------|---------1--------|
A|-33-3-------------|------------------|-33-333-3---------|----------321-----|
E|---------11-1-----|-44-444-444-444-4-|---------11-111-1-|-44-444-4----431~-|

Reggae part at the end
G|------------------|
D|------------------|
A|------------------|
E|-1-x-12-----------|





Comments


Popular Capdown tabs & chords
An A-political Stand Of Reason Bass Tabs
Civil Disobedients Bass Tabs
Cousin Cleotis Bass Tabs
Headstrong Bass Tabs
Ska Wars Chords
Bitches And Nike Shoes 2 Tabs
Civil Disobediants Tabs
Deal Real Tabs
New Revolutionaries Tabs
Pound For The Sound Tabs


Song lyrics



↑ Back to top | Tablatures and chords are parodies/interpretations of the original songs. You may use it for private study, scholarship, research or language learning purposes only
© 2014 AZChords.com Contact us | Privacy policy | DMCA | Add/correct tabs | Request tabs | Top 50 tabs