» » »

Unite To Progress Tabs (ver.1)

Artists:  A B C D E F G H I J K L M N O P Q R S T U V W X Y Z # 

Unite To Progress Tabs (ver.1)

Capdown
Rating:
0/5 (0 votes)

Hard to play? Try these video lessons and learn fast.
                This tab is an amalgamation of the left stereo guitar and the right,
so that it can be played by one guitar and still include all the important parts

--------------------(10)-----10-10------11------10------13------

------------------------------------------------(muted)---------
5---------------8---------------5---------------8---------------
5-------6-------8---------------5-------6-------8---------------
3-------6-------6---------------3-------6-------6---------------
--------4-------------------------------4-----------------------

5---------------8-----10-12-----5---------------8---------------
5-------6-----------------------5-------6-------8---------------
3-------6-------6-----8--10-----3-------6-------6---------------
--------4-------------------------------4-----------------------

----------------8-----7-5-----7-----------------5---7---8---4---
6-------5---------------3-------6-------5-----------------------
6-------5-------6-----5-3-----5-6-------5-------3---5---6---2---
4-------3-----------------------4-------3-----------------------

5-------8-------5-------8-------5-------8-------5-------8-------
5---6---8---9---5---6---8---9---5---6---8---9---5---6---8---9---
3---6---6---9---3---6---6---9---3---6---6---9---3---6---6---9---
----4-------7-------4-------7-------4-------7-------4-------7---

------------------------------------
------------------------------------
------------------------------------
------------------------------------
10------11------10------13-10-11-13-
8-------8-------11------------------

5---------------8---------------5---------------8---------------
5-------6-------8---------------5-------6-------8---------------
3-------6-------6---------------3-------6-------6---------------
--------4-------------------------------4-----------------------

----------------8-----7-5-----------------------5---7---8---4---
6-------5---------------3-------6-------5-----------------------
6-------5-------6-----5-3-------6-------5-------3---5---6---2---
4-------3-----------------------4-------3-----------------------

5-------8-------5-------8-------5-------8-------5-------8-------
5---6---8---9---5---6---8---9---5---6---8---9---5---6---8---9---
3---6---6---9---3---6---6---9---3---6---6---9---3---6---6---9---
----4-------7-------4-------7-------4-------7-------4-------7---

xx10-xx10-xx10-xx10-xx10-9-------8-------xx10-xx10-xx10-xx10-xx10-9-------8-------
xx10-xx10-xx10-xx10-xx10-9-------8-------xx10-xx10-xx10-xx10-xx10-9-------8-------
xx8--xx8--xx8--xx8--xx8--7-------6-------xx8--xx8--xx8--xx8--xx8--7-------6-------

xx10-xx10-xx10-xx10-xx10-9-------8-------xx10-xx10-xx10-xx10-xx10-9-------8-------
xx10-xx10-xx10-xx10-xx10-9-------8-------xx10-xx10-xx10-xx10-xx10-9-------8-------
xx8--xx8--xx8--xx8--xx8--7-------6-------xx8--xx8--xx8--xx8--xx8--7-------6-------

-----------------------7----------------------------------------
10-------------9----------------10-------------9-------8--------
10-------------9-------5--------10-------------9-------8--------
8--------------7----------------8--------------7-------6--------

5-------8-------5-------8-------5-------8-------5-------8-------
5---6---8---9---5---6---8---9---5---6---8---9---5---6---8---9---
3---6---6---9---3---6---6---9---3---6---6---9---3---6---6---9---
----4-------7-------4-------7-------4-------7-------4-------7---

-----------------------------------
-----------------------------------
-----------------------------------
xx10-xx10-xx10-xx10-xx10-9-------8-
xx10-xx10-xx10-xx10-xx10-9-------8-
xx8--xx8--xx8--xx8--xx8--7-------6-
            
Hard to play? Try these video lessons and learn fast. | Correct




comments powered by Disqus
↑ Back to top | Tablatures and chords are parodies/interpretations of the original songs. You may use it for private study, scholarship, research or language learning purposes only