>
 >
The Neverlution

The Neverlution Bass Tabs

Capdown - The Neverlution chords, tabs, tablatures, lyrics

Guitar lessons | Add/correct | Request | Top 50 tabs Artists:  A B C D E F G H I J K L M N O P Q R S T U V W X Y Z 0-9

The Neverlution Bass Tabs – Capdown

CD, Sheet music, Poster

Do you like The Neverlution? Share with your friends now
Bass Tabs

                               CapDown - The Neverlution


Bassist: Boob
Available On: Civil Disobedients


Intro (wait until sax plays a little)

G|---------------------|
D|---------------------|
A|-222222---2---222222-|
E|--------1---1--------|


1st Variation of the Main Riff

G|-------------------|
D|-------------------|
A|-------------------|
E|-1111-4-6-7777-6-4-|


2nd Variation

G|-----------------------------|
D|-----------------------------|
A|-----------------------------|
E|-1~-7~-1~-7~-1~-7~-1~-777777-|


3rd Variation (higher)

G|-------------------|
D|-------------------|
A|-------------------|
E|-3333-5-7-9999-9-5-|


Verse

G|------------------|
D|--------345-------|
A|----134-----654-4-|
E|-3\---------------|


Link To Fast Part
                           Last time only
G|----------------------*----------------|
D|----------------------*----------------|
A|----------------------*-5~-------------|
E|-3-333-333-33-4-4/\---*----------------|


Fast Part

G|-------------------------------|
D|-------------------------------|
A|-------------555-3333-1-3333-1-|
E|-333-666-555-------------------|


G|------------------------------------|
D|--------------4444-55555555---------|
A|-666666666666-----------------------|
E|----------------------------6-6-6-6-|


Ending

G|-----------------|
D|-----------------|
A|-4---5---6---7-8-|
E|---6---6---7-----|

After playing this for a while
there is a guitar variation.
I am not sure whether the bass plays
along with this but it sounds fine without 
doing it.

KEY
\ = slide down
/ = slide up
~ = let note ring





Comments


Popular Capdown tabs & chords
Bitches And Nike Shoes Bass Tabs
Headstrong Bass Tabs
Puond For A Sound Bass Tabs
Ska Wars Bass Tabs
Ska Wars Chords
Bitches And Nike Shoes Tabs
Civil Disobediants Tabs
Civil Disobedients Intro Tabs
Cousin Cleotis Tabs
Ska Wars 1 Tabs


Song lyrics



↑ Back to top | Tablatures and chords are parodies/interpretations of the original songs. You may use it for private study, scholarship, research or language learning purposes only
© 2014 AZChords.com Contact us | Privacy policy | DMCA | Add/correct tabs | Request tabs | Top 50 tabs