» » »

Puond For A Sound Bass tabs (ver.1)

Artists:  A B C D E F G H I J K L M N O P Q R S T U V W X Y Z # 

Puond For A Sound Bass tabs (ver.1)

Capdown
Rating:
0/5 (0 votes)

Hard to play? Try these video lessons and learn fast.
                yo yo. capdown classic !!!!

Intro                        repeat   last bar
|-------|--------|-------|-----------|--------|
|-3-4---|22222223|-3-4---|-----------|-----3--|
|-----4-|--------|-----4-|22222221---|---3----|
|-------|--------|-------|---------4-|-1------|
 
main riff                              repeat x4 last bar
|----------|--------|---------|-----------------|--------|
|-33-4-----|22222223|-33-4----|---------------3-|--------|
|------444-|--------|------44-|22222221-----3---|22222222|
|----------|--------|---------|---------4-1-----|--------|

interlude
|-------------------------------------------------------|
|-----------------------------------------------------1-|
|-----3-----3-----2h3p4--4-3-----3-----3--6-4-6-3-3h4---|
|-1-1---1-1---1-1------------1-1---1-1------------------|

|----------------------------|----------------------|
|-33-3------1111---1-------1-|-33-3------1111---1---|
|------33-3------4---3-3h4---|------33-3------4---3-|
|----------------------------|----------------------|

Repeat all of the main riff then
fill
|------------|
|-2---1------|
|---3---2----|
|---------1~-|

heavy part                  last bar
|--------------------------|-----|
|----------------11--------|-1-0-|
|-------22-33-------22-1---|-----|
|-11-44-------44---------4-|-----|

back to the intro then fill at last bar
|-------------|    |------------------|
|-------------|    |------------------|
|22222221-----| x2 |22222221----------|
|---------4-1-|    |---------4-1-11-4-|

back to main riff then to the heavy part than
bass solo which leads to outro

bass solo
|-----|----------------------------------------|
|-----|----------------------------1-----------| repeat till
|-----|-----------22-2-33-3-2----4---22-2-11-1-| finish :D
|-4-4-|-11-1-44-4-------------44---------------|

and thats it beeatches l8er HO's
            
Hard to play? Try these video lessons and learn fast. | Correct




comments powered by Disqus
↑ Back to top | Tablatures and chords are parodies/interpretations of the original songs. You may use it for private study, scholarship, research or language learning purposes only