>
 >
Pound For The Sound

Pound For The Sound Guitar Tabs

Capdown - Pound For The Sound chords, tabs, tablatures, lyrics

Guitar lessons | Add/correct | Request | Top 50 tabs Artists:  A B C D E F G H I J K L M N O P Q R S T U V W X Y Z 0-9

Pound For The Sound Guitar Tabs – Capdown

CD, Sheet music, Poster

Do you like Pound For The Sound? Share with your friends now
Tabs
Capdown


Intro - clean
e|---8-x--8-x--8-x--8-----9-x--9-x--9-x--9----7-x-7-x-7-x-7-----8-x--8-x--8-x--8--|
B|---9-x--9-x--9-x--9-----9-x--9-x--9-x--9----7-x-7-x-7-x-7-----8-x--8-x--8-x--8--|
G|--10-x-10-x-10-x-10----10-x-10-x-10-x-10----8-x-8-x-8-x-8-----9-x--9-x--9-x--9--|
D|--10-x-10-x-10-x-10----11-x-11-x-11-x-11----9-x-9-x-9-x-9----10-x-10-x-10-x-10--| x3
A|--------------------------------------------------------------------------------|
E|--------------------------------------------------------------------------------|

e|---8-x--8-x--8-x--8-----9-x--9-x--9-x--9----7-7-7-7--6--4---8---x-x-x-x-x-x--|
B|---9-x--9-x--9-x--9-----9-x--9-x--9-x--9----7-7-7-7--6--4---9---x-x-x-x-x-x--|
G|--10-x-10-x-10-x-10----10-x-10-x-10-x-10----8-8-8-8--7--5--10---x-x-x-x-x-x--|
D|--10-x-10-x-10-x-10----11-x-11-x-11-x-11----9-9-9-9--8--6--10---x-x-x-x-x-x--|
A|--------------------------------------------9-9-9-9--8--6---8---x-x-x-x-x-x--|
E|--------------------------------------------7-7-7-7--6--4-------x-x-x-x-x-x--|
                                                                  [   wah   ]    


Fill
e|---8-x--8-x--8-x--8-----9-x--9-x--9-x--9----7-x-7-x-7-x-7-----8-x--8-x--8-x--8--|
B|---9-x--9-x--9-x--9-----9-x--9-x--9-x--9----7-x-7-x-7-x-7-----8-x--8-x--8-x--8--|
G|--10-x-10-x-10-x-10----10-x-10-x-10-x-10----8-x-8-x-8-x-8-----9-x--9-x--9-x--9--|
D|--10-x-10-x-10-x-10----11-x-11-x-11-x-11----9-x-9-x-9-x-9----10-x-10-x-10-x-10--|
A|--------------------------------------------------------------------------------|
E|--------------------------------------------------------------------------------|

e|---8-x--8-x--8-x--8-----9-x--9-x--9-x--9----7-7-7-7--6--4---8---x-x-x-x-x-x--|
B|---9-x--9-x--9-x--9-----9-x--9-x--9-x--9----7-7-7-7--6--4---9---x-x-x-x-x-x--|
G|--10-x-10-x-10-x-10----10-x-10-x-10-x-10----8-8-8-8--7--5--10---x-x-x-x-x-x--|
D|--10-x-10-x-10-x-10----11-x-11-x-11-x-11----9-9-9-9--8--6--10---x-x-x-x-x-x--|
A|--------------------------------------------9-9-9-9--8--6---8---x-x-x-x-x-x--|
E|--------------------------------------------7-7-7-7--6--4-------x-x-x-x-x-x--|
                                                                  [   wah   ]    


Verse - clean (Oh dear, its a nightmare.....)
e|---8-x--8-x--8-x--8-----9-x--9-x--9-x--9----7-x-7-x-7-x-7-----8-x--8-x--8-x--8--|
B|---9-x--9-x--9-x--9-----9-x--9-x--9-x--9----7-x-7-x-7-x-7-----8-x--8-x--8-x--8--|
G|--10-x-10-x-10-x-10----10-x-10-x-10-x-10----8-x-8-x-8-x-8-----9-x--9-x--9-x--9--|
D|--10-x-10-x-10-x-10----11-x-11-x-11-x-11----9-x-9-x-9-x-9----10-x-10-x-10-x-10--| x9
A|--------------------------------------------------------------------------------|
E|--------------------------------------------------------------------------------|

                                      [clean]  
e|------------------------------------8~--|
b|------------------------------------9~--|
G|------------------------------------10~-|
D|--9-9-9-9-9-9-9-9-9-9-9-9-9-9-9-9---10~-|
A|--7-7-7-7-7-7-7-7-7-7-7-7-7-7-7-7---8~--|
E|----------------------------------------|
Pm. . . . . . . . . . release


Bridge - clean
e|------------------------------------------------------------------------------|
b|------------------------------------------------------------------------------|
G|------------------------------------------------------------------------------|
D|------------------------------------------------------------------------------| x2
A|--8-8-8-8-8-8-8-8-------------------------------------------------------------|
E|-------------------8-8-8-8-8-8-8-8--11-11-11-11--9-9--11-11--8-8-8-8-8-8-8-8--|
Pm. . . . . . . . .  . . . . . . . .   .  .  .  .  . .   .  .  . . . . . . . .




e|---8-x--8-x--8-x----8-x--8-x--8-x---11-11-11-11----9---11----8-x--8-x--8-x--|
B|---9-x--9-x--9-x----8-x--8-x--8-x---11-11-11-11----9---11----8-x--8-x--8-x--|
G|--10-x-10-x-10-x----9-x--9-x--9-x---12-12-12-12---10---12----9-x--9-x--9-x--|
D|--10-x-10-x-10-x---10-x-10-x-10-x---13-13-13-13---11---13---10-x-10-x-10-x--| x3
A|---8-x--8-x--8-x---10-x-10-x-10-x---13-13-13-13---11---13---10-x-10-x-10-x--|
E|--------------------8-x--8-x--8-x---11-11-11-11----9---11----8-x--8-x--8-x--|

e|---8-x--8-x--8-x----8-x--8-x--8-x---11-11-11-11----9---11----8---x-x-x-x-x-x--|
B|---9-x--9-x--9-x----8-x--8-x--8-x---11-11-11-11----9---11----8---x-x-x-x-x-x--|
G|--10-x-10-x-10-x----9-x--9-x--9-x---12-12-12-12---10---12----9---x-x-x-x-x-x--|
D|--10-x-10-x-10-x---10-x-10-x-10-x---13-13-13-13---11---13---10---x-x-x-x-x-x--| x3
A|---8-x--8-x--8-x---10-x-10-x-10-x---13-13-13-13---11---13---10---x-x-x-x-x-x--|
E|--------------------8-x--8-x--8-x---11-11-11-11----9---11----8---x-x-x-x-x-x--|
                                      [        distorted        ]  [   wah   ]    


Fill - clean
e|---8-x--8-x--8-x--8-----9-x--9-x--9-x--9----7-x-7-x-7-x-7-----8-x--8-x--8-x--8--|
B|---9-x--9-x--9-x--9-----9-x--9-x--9-x--9----7-x-7-x-7-x-7-----8-x--8-x--8-x--8--|
G|--10-x-10-x-10-x-10----10-x-10-x-10-x-10----8-x-8-x-8-x-8-----9-x--9-x--9-x--9--|
D|--10-x-10-x-10-x-10----11-x-11-x-11-x-11----9-x-9-x-9-x-9----10-x-10-x-10-x-10--| x3
A|--------------------------------------------------------------------------------|
E|--------------------------------------------------------------------------------|

e|---8-x--8-x--8-x--8----9-x--9-x--9-x--9-----------------------------------------------|
B|---9-x--9-x--9-x--9----9-x--9-x--9-x--9-----------------------------------------------|
G|--10-x-10-x-10-x-10---10-x-10-x-10-x-10----9~------8~---------------------------------|
D|--10-x-10-x-10-x-10---11-x-11-x-11-x-11----9~-9~---8~-8~---3~---5-6-5-----------------|
A|-------------------------------------------7~-9~---6~-8~---3~---------6-5-4~--2-------|
E|----------------------------------------------7~------6~---1~-------------------4-3~--|
                                            [                distorted                  ]

Verse
e|-------------------------------------------------------------------------------------|
b|-------------------------------------------------------------------------------------|
G|----------------4--5-------------4-4-----------------------4--5--10-10-10-11-10-11^--|
D|--3-3-3-3--6-6--4--5---6--3-3-3--4-4--8--6---3-3-3-3--6-6--4--5----------------------|
A|--3-3-3-3--6-6--2--3---6--3-3-3--2-2--8--6---3-3-3-3--6-6--2--3----------------------|
E|--1-1-1-1--4-4---------4--1-1-1-------6--4---1-1-1-1--4-4----------------------------|
Pm.   . . .  . .  .   .     . . .  . .           . . .  . .  .  .

e|----------------------------------------------------------------------------------|
b|----------------------------------------------------------------------------------|
G|--------------4--5-------------4-4-----------------------4--5-----------------7~--|
D|--3-3-3--6-6--4--5---6--3-3-3--4-4--8--6---3-3-3-3--6-6--4--5----6-6--3-3--8--x---|
A|--3-3-3--6-6--2--3---6--3-3-3--2-2--8--6---3-3-3-3--6-6--2--3----6-6--3-3--6--5~--|
E|--1-1-1--4-4---------4--1-1-1-------6--4---1-1-1-1--4-4----------4-4--1-1---------|


Verse - clean (Oh dear, its a nightmare.....)
e|---8----8---8----8---8---8---8----9------8----8---8----7--7-7-7--6--4---8--|
B|---9----9---8----8---8---8---8----9------9----9---9----7--7-7-7--6--4---9--|
G|--10---10---9----9---9---9---9---10-----10---10---9----8--8-8-8--7--6--10--|
D|--10---10--10---10--10--10--10---11-----10---10--10----9--9-9-9--8--7--10--| x2
A|---8----8--10---10--10--10--10---11------8----8--10----9--9-9-9--8--7------|
E|------------8----8---8---8---8----9---------------8----7--7-7-7--6--4------|

                                                                       4th
e|--7-7-7-7--6--4---8--|     |--7-7-7-7--6--4--|---8-x--8-x--8-x--|--x-x-x-x--|
B|--7-7-7-7--6--4---9--|     |--7-7-7-7--6--4--|---8-x--9-x--9-x--|--x-x-x-x--|
G|--8-8-8-8--7--5--10--|     |--8-8-8-8--7--5--|--10-x-10-x-10-x--|--x-x-x-x--|
D|--9-9-9-9--8--6--10--| x2  |--9-9-9-9--8--6--|--10-x-10-x-10-x--|--x-x-x-x--|
A|--9-9-9-9--8--6---8--|     |--9-9-9-9--8--6--|---8-x--8-x--8-x--|--x-x-x-x--|
E|--7-7-7-7--6--4------|     |--7-7-7-7--6--4--|------------------|--x-x-x-x--|
                                                                  [    wah    ]



Verse - clean (So were freedom fighters.....)
e|---8-x--8-x--8-x--8-----9-x--9-x--9-x--9----7-x-7-x-7-x-7-----8-x--8-x--8-x--8--|
B|---9-x--9-x--9-x--9-----9-x--9-x--9-x--9----7-x-7-x-7-x-7-----8-x--8-x--8-x--8--|
G|--10-x-10-x-10-x-10----10-x-10-x-10-x-10----8-x-8-x-8-x-8-----9-x--9-x--9-x--9--|
D|--10-x-10-x-10-x-10----11-x-11-x-11-x-11----9-x-9-x-9-x-9----10-x-10-x-10-x-10--| x3
A|--------------------------------------------------------------------------------|
E|--------------------------------------------------------------------------------|

e|---8-x--8-x--8-x--8-----9-x--9-x--9-x--9---------------------------------------------|
B|---9-x--9-x--9-x--9-----9-x--9-x--9-x--9---------------------------------------------|
G|--10-x-10-x-10-x-10----10-x-10-x-10-x-10----9----------------------------------------|
D|--10-x-10-x-10-x-10----11-x-11-x-11-x-11----9--9---------3~---5-6-5------------------|
A|--------------------------------------------7--9---9*^-----3~---------6-5-4~--2------|
E|-----------------------------------------------7----------1~-------------------4-3~--|
                                             [                distorted                ]

Outro
e|-------------------------------------------------------------------------------------|
b|-------------------------------------------------------------------------------------|
G|----------------4--5-------------4-4-----------------------4--5--10-10-10-11-10-11^--|
D|--3-3-3-3--6-6--4--5---6--3-3-3--4-4--8--6---3-3-3-3--6-6--4--5----------------------|
A|--3-3-3-3--6-6--2--3---6--3-3-3--2-2--8--6---3-3-3-3--6-6--2--3----------------------|
E|--1-1-1-1--4-4---------4--1-1-1-------6--4---1-1-1-1--4-4----------------------------|
Pm.   . . .  . .  .   .     . . .  . .           . . .  . .  .  .

e|----------------------------------------------------------------------------------|
b|----------------------------------------------------------------------------------|
G|--------------4--5-------------4-4-----------------------4--5-----------------7~--|
D|--3-3-3--6-6--4--5---6--3-3-3--4-4--8--6---3-3-3-3--6-6--4--5----6-6--3-3--8--x---|
A|--3-3-3--6-6--2--3---6--3-3-3--2-2--8--6---3-3-3-3--6-6--2--3----6-6--3-3--6--5~--|
E|--1-1-1--4-4---------4--1-1-1-------6--4---1-1-1-1--4-4----------4-4--1-1---------|


End
e|----------|
b|----------|
G|----------|
D|--6-6--8--|
A|--6-6--8--|
E|--4-4--6--|





Comments


Popular Capdown tabs & chords
An A-political Stand Of Reason Bass Tabs
Cousin Cleotis Bass Tabs
Dub No 2 Bass Tabs
Headstrong Bass Tabs
Ska Wars Bass Tabs
Bitches And Nike Shoes Tabs
Bitches And Nike Shoes 1 Tabs
Cousin Cleotis Tabs
Deal Real Tabs
Unite To Progress Tabs


Song lyrics



↑ Back to top | Tablatures and chords are parodies/interpretations of the original songs. You may use it for private study, scholarship, research or language learning purposes only
© 2014 AZChords.com Contact us | Privacy policy | DMCA | Add/correct tabs | Request tabs | Top 50 tabs